#----------------------------PLEASE NOTE-----------------------------#
# This represents the author's own work and interpretation of the    #
# song. To be used only for private study, scholarship, or research. #
#--------------------------------------------------------------------#

Artist: Youth Lagoon
 Album: Year of Hibernation
  Song: The Hunt

[http://www.indieguitartabs.com/bands/youth_lagoon/the_hunt.html]

Tabbed by: Evan

Chords/Bass:
F A# Dm


------------------------------------------------------------------------
------------------------------------------------------------------------
-------------------10-10---------10-10--12-12--/14-14---14-14--12--12---
-----10-10--12-12---------12-12-----------------------------------------
-12---------------------------------------------------------------------
------------------------------------------------------------------------

--------------------------------------------------------------
--------------------------------------------------------------
-10--12--10------10--10-------------10------------------------
------------12----------12--10--12-----12--10---12------------
--------------------------------------------------------------
--------------------------------------------------------------






------------10------------------------------10--------------------------------
----------------------------13-------------------------------10--h11--p10-----
----10--/12--------10--/12---------10--/12-----------10--/12------------------
-12-------------12-------------12----------------12---------------------------
------------------------------------------------------------------------------
------------------------------------------------------------------------------








octave that comes in late
--------------------------------------------------------------
--------------------------------------------------------------
--------------------------------------------------------------
--3--3-3--3--3-3----------------------------------------------
--------------------------------------------------------------
--1--1-1--1--1-1----------------------------------------------