#----------------------------PLEASE NOTE-----------------------------#
# This represents the author's own work and interpretation of the    #
# song. To be used only for private study, scholarship, or research. #
#--------------------------------------------------------------------#

Artist: Yo La Tengo
  Song: The Hour Grows Late

[http://www.indieguitartabs.com/bands/yo_la_tengo/hour.html]



|----------------------------------
|----------------------------------
|-4-2-0-----------2----------------
|-------0---0-0-2---4---4-2-0------
|------------------------------00--
|----------------------------------

|----------------------------------
|----------------------------------
|-4-2-0----------------------------
|-------0------0-0----------0-2-0--
|----------0h2-----0-0--0-2-------2
|----------------------------------

G                           D
As he fired up the drum machine
G                              D
He stole a glance at the empty seats
G                                D
He took a minute to retune his guitar
G                        D
       As the hour grew late

I wanna send this out to Richie Vey
In his thrift-store corner of the world
His soul is my cheap laugh
As the hour grows late