#----------------------------PLEASE NOTE-----------------------------#
# This represents the author's own work and interpretation of the    #
# song. To be used only for private study, scholarship, or research. #
#--------------------------------------------------------------------#

Artist: Wolf Parade
  Song: Things I Don't Know

[http://www.indieguitartabs.com/bands/wolf_parade/things_i_dont_know.html]

Tabbed by: womanhorse / comesapart (http://wolfparade.nonstuff.com)

intro: Dm - Dm - Dm - Dm

Gtr I   (E A D G B E) - 'dan'
Gtr II  (E A D G B E) - 'dante'
Gtr III (E A D G B E) - 'spencer'

Q.=130
6/8
Gtr I
E E E E E E E E E E E E E E E E E E E E E E E E
|---------------|---------------|---------------|----------------|
|-3p1----------|---------------|-3p1----------|---------------|
|-----2p0---0--|---------0h2-|-----2p0---0--|---------0h2--|
|---------3-----|-3p0-0h3----|---------3-----|-3p0-0h3-----|
|---------------|---------------|---------------|----------------|
|---------------|---------------|---------------|----------------|


E E E E E E E E E E E E E E E E E E E E E E E E
|---------------|---------------|----------------|----------------|
|-3p1----------|---------------|-3p1-----------|----------------|
|-----2p0---0--|---------0h2--|-----2p0---0--|---------0h2----|
|---------3-----|-3p0-0h3-----|---------3-----|-3p0-0h3--------|
|---------------|---------------|----------------|----------------|
|---------------|---------------|----------------|----------------|


E E E E E E E E E E E E E E E E E E E E E E E E
||--------------|-------------|-------------|-------------|
||o-3p1---------|-------------|-3p1---------|-------------|
||------2p0---0-|---------0h2-|-----2p0---0-|---------0h2-|
||----------3---|-3p0-0h3-----|---------3---|-3p0-0h3-----|
||o-------------|-------------|-------------|-------------|
||--------------|-------------|-------------|-------------|
|
| Gtr II
| Q E E E E Q E E E E Q E E E E Q E E E E
||--------------|-------------|-------------|-------------|
||o-------------|-------------|-------------|-------------|
||--------------|-------------|-----7-5-7---|-------------|
||--------------|-----7-5-7---|-------------|-----7-5-7---|
||o-----8-7-8---|-------------|-------------|-------------|
||--------------|-------------|-------------|-------------|


E E E E E E E E E E E E E E E E E E E E E E E E
|-------------|-------------|-------------|-----------------||
|-3p1---------|-------------|-3p1---------|----------------o||
|-----2p0---0-|---------0h2-|-----2p0---0-|---------0h2-----||
|---------3---|-3p0-0h3-----|---------3---|-3p0-0h3---------||
|-------------|-------------|-------------|----------------o||
|-------------|-------------|-------------|-----------------||
|
| Q E E E E Q E E E E Q E E E E Q E E E E
|-------------|-------------|-------------|-----------------||
|-------------|-------------|-------------|----------------o||
|-------------|-------------|-----7-5-7---|-----------------||
|-------------|-----7-5-7---|-------------|-----7-5-7-------||
|-----8-7-8---|-------------|-------------|----------------o||
|-------------|-------------|-------------|-----------------||


E E E E E E E E E E E E E E E E E E E E E E E E
||-----------------|----------------|----------------|----------------|
||o--3p1-----------|----------------|--3p1-----------|----------------|
||--------2p0----0-|------------0h2-|-------2p0----0-|------------0h2-|
||-------------3---|--3p0--0h3------|------------3---|--3p0--0h3------|
||o----------------|----------------|----------------|----------------|
||-----------------|----------------|----------------|----------------|
|
| Q E E E E Q E E E E Q E E E E Q E E E E
||-----------------|----------------|----------------|----------------|
||o----------------|----------------|----------------|----------------|
||-----------------|----------------|-------7-5--7---|----------------|
||-----------------|-------7-5--7---|----------------|-------7-5--7---|
||o-------8-7--8---|----------------|----------------|----------------|
||-----------------|----------------|----------------|----------------|
|
| Gtr III
| Q Q Q Q Q Q Q Q Q Q Q Q
||--13---13---13---|-13---13---13---|-13---13---13---|-13---13---13---|
||o-10---10---10---|-10---10---10---|-10---10---10---|-10---10---10---|
||-----------------|----------------|----------------|----------------|
||-----------------|----------------|----------------|----------------|
||o----------------|----------------|----------------|----------------|
||-----------------|----------------|----------------|----------------|


E E E E E E E E E E E E E E E E E E E E E E E E
|----------------|----------------|----------------|--------------------||
|--3p1-----------|----------------|--3p1-----------|-------------------o||
|-------2p0----0-|------------0h2-|-------2p0----0-|------------0h2-----||
|------------3---|--3p0--0h3------|------------3---|--3p0--0h3----------||
|----------------|----------------|----------------|-------------------o||
|----------------|----------------|----------------|--------------------||
|
| Q E E E E Q E E E E Q E E E E Q E E E E
|----------------|----------------|----------------|--------------------||
|----------------|----------------|----------------|-------------------o||
|----------------|----------------|-------7-5--7---|--------------------||
|----------------|-------7-5--7---|----------------|-------7-5--7-------||
|-------8-7--8---|----------------|----------------|-------------------o||
|----------------|----------------|----------------|--------------------||
|
| Q Q Q Q Q Q Q Q Q Q Q Q
|-13---13---13---|-13---13---13---|-13---13---13---|-13---13---13-------||
|-10---10---10---|-10---10---10---|-10---10---10---|-10---10---10------o||
|----------------|----------------|----------------|--------------------||
|----------------|----------------|----------------|--------------------||
|----------------|----------------|----------------|-------------------o||
|----------------|----------------|----------------|--------------------||


Gtr III
Q Q Q Q Q Q Q Q Q Q Q Q
|-13--13--13--|-13--13--13--|-13--13--13--|-13--13--13--|
|-10--10--10--|-10--10--10--|-10--10--10--|-10--10--10--|
|-------------|-------------|-------------|-------------|
|-------------|-------------|-------------|-------------|
|-------------|-------------|-------------|-------------|
|-------------|-------------|-------------|-------------|


Q Q Q Q Q Q Q Q Q Q Q Q
|-12--12--12--|-12--12--12--|-12--12--12--|-12--12--12----|
|-10--10--10--|-10--10--10--|-10--10--10--|-10--10--10----|
|-------------|-------------|-------------|---------------|
|-------------|-------------|-------------|---------------|
|-------------|-------------|-------------|---------------|
|-------------|-------------|-------------|---------------|


Q Q Q Q Q Q Q Q Q Q Q Q
|-13--13--13--|-13--13--13--|-13--13--13--|-13--13--13--|
|-10--10--10--|-10--10--10--|-10--10--10--|-10--10--10--|
|-------------|-------------|-------------|-------------|
|-------------|-------------|-------------|-------------|
|-------------|-------------|-------------|-------------|
|-------------|-------------|-------------|-------------|


Q Q Q Q Q Q Q Q Q Q Q Q
|-13--13--13--|-13--13--13--|-13--13--13--|-13--13--13----|
|-11--11--11--|-11--11--11--|-11--11--11--|-11--11--11----|
|-------------|-------------|-------------|---------------|
|-------------|-------------|-------------|---------------|
|-------------|-------------|-------------|---------------|
|-------------|-------------|-------------|---------------|


Q Q Q Q Q Q Q Q Q Q Q Q
|-13--13--13--|-13--13--13--|-13--13--13--|-13--13--13--|
|-10--10--10--|-10--10--10--|-10--10--10--|-10--10--10--|
|-------------|-------------|-------------|-------------|
|-------------|-------------|-------------|-------------|
|-------------|-------------|-------------|-------------|
|-------------|-------------|-------------|-------------|


Q Q Q Q Q Q Q Q Q Q Q Q
|-12--12--12--|-12--12--12--|-12--12--12--|-12--12--12----|
|-10--10--10--|-10--10--10--|-10--10--10--|-10--10--10----|
|-------------|-------------|-------------|---------------|
|-------------|-------------|-------------|---------------|
|-------------|-------------|-------------|---------------|
|-------------|-------------|-------------|---------------|


Q Q Q Q Q Q Q Q Q Q Q Q
|-13--13--13--|-13--13--13--|-12--12--12--|-12--12--12--|
|-10--10--10--|-10--10--10--|-10--10--10--|-10--10--10--|
|-------------|-------------|-------------|-------------|
|-------------|-------------|-------------|-------------|
|-------------|-------------|-------------|-------------|
|-------------|-------------|-------------|-------------|


Q Q Q Q Q Q Q Q Q Q Q Q
|-13--13--13--|-13--13--13--|-13--13--13--|-13--13--13----|
|-11--11--11--|-11--11--11--|-11--11--11--|-11--11--11----|
|-------------|-------------|-------------|---------------|
|-------------|-------------|-------------|---------------|
|-------------|-------------|-------------|---------------|
|-------------|-------------|-------------|---------------|


Q Q Q Q Q Q Q Q Q Q Q Q
|-13--13--13--|-13--13--13--|-12--12--12--|-12--12--12--|
|-10--10--10--|-10--10--10--|-10--10--10--|-10--10--10--|
|-------------|-------------|-------------|-------------|
|-------------|-------------|-------------|-------------|
|-------------|-------------|-------------|-------------|
|-------------|-------------|-------------|-------------|


Q Q Q Q Q Q W W
|-12--12--12--|-12--12--12--|--------|------|
|-10--10--10--|-10--10--10--|--------|------|
|-------------|-------------|--------|------|
|-------------|-------------|--------|------|
|-------------|-------------|--------|------|
|-------------|-------------|--------|------|

                  Dm                      A7
I sign you in ways, youīll never hear
                          Dm                                      A7
I am apresured on sundays, i am looking for ...........
                           F
If i could join some houndred songs
                           A7
Then i could turn it one, ba da bum
               Dm             A7
There are things i dont know

itīs my plan, to just be kissing the snow   1, 2, 3
            F                                     C                             A7
Itīs the air between lovers when you measure the ...............
                   Dm - Dm - Dm - Dm
Things i dont know

                    Dm                                A7
I sign you in houses! , with the television on
                       Dm                                               A#
Am i kicking the sunset down?, or is it wearing (?) the sun?

F ... (I have no idea of the lyrics here..., but itīs around the same chords)

                 F                               Dm
How does it feel? .. and how does it feel?
          A#                             F                                Bb
to be sang in song, how does it feel?, .. and how does it feel?
                   Bb                             F
to be sang in songs, am i kicking the sunset down?
                           Bb
or is he pissing you off?

Break: A - A .. (several times)

Dm - A# - F - C - A - A ..(again several times)
Dm - A# - F - C
A - A# - C - A# - A (stay in A..)

                        F                          Bb
Well i sing you in songs, i sign you in songs
                  C                    Dm
you hold my hand, string me alone
                        C                         F
well i sing you in songs, i sing you in soooongs
                  Gm                     A7
you hold my hand, you hold my hand!
              A#                             C                         Dm
string me along, well i sing you in songs, i sing you in songs.