#----------------------------PLEASE NOTE-----------------------------#
# This represents the author's own work and interpretation of the    #
# song. To be used only for private study, scholarship, or research. #
#--------------------------------------------------------------------#

Artist: Wolf Parade
 Album: At Mount Zoomer
  Song: Kissing The Beehive

[http://www.indieguitartabs.com/bands/wolf_parade/kissing_the_beehive.html]

Tabbed by: modernvideo (wolfparade.nonstuff.com)

Listen to the song for soul.

CHORDS
  Csus2   Dsus4  
e|--0-------3---------------
B|--1-------3---------------		
G|--0-------2---------------
D|--0-------0---------------
A|--3-------0---------------
E|--0-------0---------------

Intro :	                  C	Bm      Am  
e----------------8-----7----5------------------------------|
B-----------0----8-----7----5------------0-----------------| 
G-----0--2----2--9-----7----5------0--2----2--0-------(x3)-|
D--2-------------10----9----7---2---------------2--0-------|
A----------------10----9----7------------------------------|
E----------------8-----7----5------------------------------|

Groove soft (palm on bridge click for example)
         Em	   C	          Csus2  	D	 Em
While stumbling where our hearts beat regular time 
         Em		 C          Csus2    D	Em
Where the landscapes dump on rivers flowing by 
                 Em      C	   Csus7    D	       Em
We're just drifting all night long, hands to the sky 
         Em	 C     Csus2   Dsus4    D
And our captain, oh, he is never denied 

Intro again


Groove (palm on bridge click for example)
                  Em        C	  Csus2	 D	         Em
I hear them sinking out from shore, hands at their sides 
                      Em       C      Csus2           D	 Em
And we find a rock to hold the head to tear at the sky 
                  Em       C	   Csus2     D	       Em
We're just drifting all night long here with the flies 
             Em	 C      Csus2  Dsus4    D
And our captain, oh, he is never denied 

Open
C					
As if you didn't know that it would sting 
Em
Kissing the beehive 
C					Am	  Em
Pissing down the mountainside while nude in the rain 
C				
As if you didn't know that it would sting 
Em
Kissing the beehive 
C				  Am 		Em
And fucking up your finger from pushing on the ring 
							
  C       Em
Well, we lie on frigid shores of light 
               Am		            C	Em
We knew nothing of this bitter hand of war 
                 C	               Em
Something strange in the coals tonight 
                     Am		         C	         Em	
Still we knew nothing of these bitter hands of war 


C
I wish I could believe in you 
Em
Crashing down the landings wearing white/crashing all the weddings wearing white 
Am					C	Em
But we all hate the landlord, baby, it's alright, it's alright 

C
I wish I could believe in who you are 
G
You held your cap in the air and you called it a guitar 
Am
You put your face on the glass and you call it good cinema 
As if you didn't know that it would sting 

3:16
e--------------------------------------------------------------|
B--------------------------------------------------------------|	
G--12--9--12--11--12--11--9--16--12--16/14--16--14--12/9--(x3)-|
D--------------------------------------------------------------|
A--------------------------------------------------------------|
E--------------------------------------------------------------|
 Oh, oh, oh, oh!

| Em Em7 | 

4:14
E------------------------------------------------------------|
B--------------------------------------0---------------------|	
G-----0--4--5~~--4~---0---0------------0--2-----2--0---------|
D--2----------------2----------2----------------4------------|
A------------------------------------------------------------|
E------------------------------------------------------------|

4:49 - Solo
e--12--7--10-10-10--12--3------------------------------|
B------------------------------------------------------|	
G-------------------------------------------------(x3)-|
D------------------------------------------------------|
A------------------------------------------------------|
E------------------------------------------------------|


Em 			G			
Jonathan, Jonathan, waterfalls are running thin 
       C
You know here's a holy grail for you to hold and 
Em		  G		  C
Fire in the hole, fire in the hole, fire in the hole 

Em 			G		              C
I'm not a wild party, I'm just an evening at the show 
Put the ring back on, and take your husband home and 
Em		  G		  C
Fire in the hole, fire in the hole, fire in the hole, oh, oh, oh 


5:55
e-----------------------------------------------------------------------|
B--0-0-0---0-3-0---0-0-0---0-5-0---0-0-0---0-3-0------------------------|	
G--------2-------2-------2-------2-------2-------2--2-0-2---0-0----(x2)-|
D---------------------------------------------------------4--4-4-2------|
A-----------------------------------------------------------------------|
E-----------------------------------------------------------------------|

Em 		G	                           C
Radio, radio, why did you leave Virginia's side 
It's an alibi, we all know how the music died 
Em 			G			  C
Fire in the hole, fire in the hole, fire in the hole, fire in the hole! 
Oh, oh, oh, oh, oh 

Em 			G	
Jonathan, Jonathan, waterfalls are running thin 
       C
You know here's a finger made for me, for you to hold and 
Em		  G		  C
Fire in the hole, fire in the hole, fire in the hole 
Oh, oh, oh, oh, oh 

6:53
E------------------------------------------------------------|
B--------------------------------------0---------------------|	
G-----0--4--5~~--4~---0---0------------0--2-----2--0---------|
D--2----------------2----------2----------------4------------|
A------------------------------------------------------------|
E------------------------------------------------------------|

Estranged from the captain's light 
And his bitter hand 
Oh, oh, oh, oh...

7:17
e------------------------------------------------------------------|
B------------------------------------------------------------------|	
G--12--9--12--11--12--11--9--16--12--16~~-14--16--14~~--12/9--(x3)-|
D------------------------------------------------------------------|
A------------------------------------------------------------------|
E------------------------------------------------------------------|


7:30
e--7-7-5-3-2-3--7-7-5-3-2---0-----------------------------|
B-------------------------3-------------------------------|
G----------------------------------------------------(x5)-|
D---------------------------------------------------------|		
A---------------------------------------------------------|		
E---------------------------------------------------------|

IMPROVISE!!!