#----------------------------PLEASE NOTE-----------------------------#
# This represents the author's own work and interpretation of the    #
# song. To be used only for private study, scholarship, or research. #
#--------------------------------------------------------------------#

Artist: Wolf Parade
 Album: Apologies To The Queen Mary
  Song: Shine A Light

[http://www.indieguitartabs.com/bands/wolf_parade/07_shine_a_light.html]

Tabbed by: Pete Matyskiela



Tuning: DADGBe
 
[intro] (also between verses)
e|--------------------------------------------------------------------------------|
B|--------------------------------------------------------------------------------|
G|--------------------------------------------------------------------------------|
D|----7----7----7----7----7----7------7------7----7----7----7----7----7-------7---|
A|--------------------------------------------------------------------------------|
D|-7----7----7----7----7----7----7-0---0-7----7----7----7----7----7----7-0----07--|
 
[verse]
e|---------------------------------------------------------------------------------|
B|---------------------------------------------------------------------------------|
G|---------------------------------------------------------------------------------|
D|----7----7----7----7----7----7----7----7----4----4----4----4----4----4----4----4-|
A|---------------------------------------------------------------------------------|
D|-7----7----7----7----7----7----7----7----4----4----4----4----4----4----4----4----|
 
e|-----------------------------------------|
B|-----------------------------------------|
G|-----------------------------------------|
D|----0----0----7----7----0----0----4----4-|
A|-----------------------------------------|
D|-0----0----7----7----0----0----4----4----|

[chorus]
e|---------------------------------------------------------------------------------|
B|---------------------------------------------------------------------------------|
G|---------------------------------------------------------------------------------|
D|----2----2----2----2----2----2----2----2----4----4----4----4----4----4----4----4-|
A|---------------------------------------------------------------------------------|
D|-2----2----2----2----2----2----2----2----4----4----4----4----4----4----4----4----|
 
e|---------------------------------------------------------------------------------|
B|---------------------------------------------------------------------------------|
G|---------------------------------------------------------------------------------|
D|----2----2----2----2----2----2----2----2----0----0----7----7----0----0----4----4-|
A|---------------------------------------------------------------------------------|
D|-2----2----2----2----2----2----2----2----0----0----7----7----0----0----4----4----|