#----------------------------PLEASE NOTE-----------------------------#
# This represents the author's own work and interpretation of the    #
# song. To be used only for private study, scholarship, or research. #
#--------------------------------------------------------------------#

Artist: WEAK13
  Song: Prouder Than U2

[http://www.indieguitartabs.com/bands/weak13/prouder_than_u2.html]

Tabbed by: ERFmusic

NOTE: I've seen other sites tab this song completly wrong. This is all correct and 
covers the main guitar riffs. 
It uses a very low Guitar tuning, heavy guage strings are recomended! 


Intro:
B |------------------------|------------------------|
B |------------------------|------------------------|
E |--6---------------------|------------------------|
B |--5---------------------|------------------------|
F#|--4---------------------|------------------------|
B |------------------------|------------------------|


Riff 1:
B |---------------------------|---------------------------|
B |---------------------------|---------------------------|
E |---------------------------|---------------------------|
B |---------------------------|---------------------------|
F#|--1-2-1-0-1----1-1-2-1-0-1-|-----1-1-----1-1-2-1-0-1---|
B |--1-2-1-0-1----1-1-2-1-0-1-|-----1-1-----1-1-2-1-0-1---|


Verse Riff:
B |---------------------------|---------------------------|
B |---------------------------|---------------------------|
E |--------------x------------|---------------------------|
B |--5-5-5-5-5---x--5-5--x-7--|--8-8-8-8-8---x--8-8--x-4--|
F#|--5-5-5-5-5------5-5--x-4--|--5-5-5-5-5---x--5-5--x-4--|
B |--5-5-5-5-5------5-5----4--|--5-5-5-5-5------5-5----4--|

B |---------------------------|
B |---------------------------|
E |---------------------------|
B |--5-5-5-5-5---x--5-5--x-4--|
F#|--3-3-3-3-3---x--3-3--x-4--|
B |--5-5-5-5-5------5-5----4--|

                  
Riff 2:
B |---------------------------|---------------------------|
B |---------------------------|---------------------------|
E |---------------------------|--5------------------------|
B |--1------------------------|--5------------------------|
F#|--1-----------------4-4-5--|--3-----------------4-4-5--|
B |--1-----------------4-4-5--|--------------------4-4-5--|
                  
B |---------------------------|---------------------------|
B |---------------------------|---------------------------|
E |---------------------------|--5------------------------|
B |--1------------------------|--5------------------------|
F#|--1-----------------4-4-5--|--3-----------------4------|
B |--1-----------------4-4-5--|--------------------4------|



                  
Riff 3:
B |--1-----------------4-4-4--|--5-----------------6-6-6--|
B |--1-----------------4-4-4--|--5-----------------5-5-5--|
E |--0-----------------3-3-3--|--4-----------------4-4-4--|
B |--1-----------------4-4-4--|--5-----------------5-5-5--|
F#|--1-----------------4-4-4--|--5-----------------5-5-5--|
B |--1-----------------4-4-4--|--5-----------------5-5-5--|