#----------------------------PLEASE NOTE-----------------------------#
# This represents the author's own work and interpretation of the    #
# song. To be used only for private study, scholarship, or research. #
#--------------------------------------------------------------------#

Artist: WEAK13
  Song: Lunatic

[http://www.indieguitartabs.com/bands/weak13/lunatic.html]

Tabbed by: ERFmusic

Tuning: B,F#,B,E,B,B


Intro:
B |(3)-------------3-------------------------------------------|
B |-3--------------3-------------------------------------------|
E |-3--------------2--------------5--------------8-------------|
B |-3--------------3--------------6--------------8-------------|
F#|-1--------------3--------------6--------------6-------------|
B |----------------3--------------6----------------------------|
                                                                

Riff 1:
B |------------------------------------------------------------|
B |----------------------------5-------------------------------|
E |----(2)-------------5-------5-----(5)-------------8-----8---|
B |-----3-------3----5---5---5--------6-----6----------8-----8-|
F#|---3---3---3----3-------3--------6---6-----6--6-6-----6-----|
B |-3-------3---------------------6-------6--------------------|
                                                                
B |------------------------------------------------------------|
B |--------------------5-----5---------------------------------|
E |----(2)-------------5-----5-------(5)5------------8(8)--8---|
B |-----3---3------------5-----5------6-6---6-6--------8-----8-|
F#|---3---3---3----3-3-----3--------6---------6--6-6-----6-----|
B |-3-----------3-----------------6-------6--------------------|          


Verse chords:
B |-3---------------------------6---------------------------|
B |-3-------------5-------------6-------------8-------------|
E |-2-------------5-------------5-------------8-------------|
B |-3-------------5-------------6-------------8-------------|
F#|-3-------------3-------------6-------------6-------------|
B |-3---------------------------6---------------------------|

B |---------------3-------------6---------------------------|
B |-3-------------3-------------6-------------8-------------|
E |-3-------------2-------------5-------------8-------------|
B |-3-------------3-------------6-------------8-------------|
F#|-1-------------3-------------6-------------6-------------|
B |---------------3-------------6---------------------------|


Chorus:
B |-3---------------------------6---------------------------|
B |-3-------------5-------------6-------------8-------------|
E |-2-------------5-------------5-------------8-------------|
B |-3-------------5-------------6-------------8-------------|
F#|-3-------------3-------------6-------------6-------------|
B |-3---------------------------6---------------------------|


Bridge Chords:
B |---------------3-------------6---------------------------|
B |-3-------------3-------------6-------------8-------------|
E |-3-------------2-------------5-------------8-------------|
B |-3-------------3-------------6-------------8-------------|
F#|-1-------------3-------------6-------------6-------------|
B |---------------3-------------6---------------------------|


Chorus:
B |-3---------------------------6---------------------------|
B |-3-------------5-------------6-------------8-------------|
E |-2-------------5-------------5-------------8-------------|
B |-3-------------5-------------6-------------8-------------|
F#|-3-------------3-------------6-------------6-------------|
B |-3---------------------------6---------------------------|


Outro:
B |-3-------------6------------3--------------6-------------|
B |-3-------------6------------3--------------6-------------|
E |-2-------------5------------2--------------5-------------|
B |-3-------------6------------3--------------6-------------|
F#|-3-------------6------------3--------------6-------------|
B |-3-------------6------------3--------------6-------------|

B |-3-------------------------------------------------------|
B |-3-------------------------------------------------------|
E |-2-------------------------------------------------------|
B |-3-------------------------------------------------------|
F#|-3-------------------------------------------------------|
B |-3-------------------------------------------------------|