Angels' Share Tab

More Vetiver Tabs

Artist: Vetiver
 Album: Vetiver
  Song: Angels' Share

Tabbed by: Hunter MacDermut

C/A# - xxxx313

Intro riff:

e|-3s5-3---0-------------------|-------------------------------------|
B|-----------3-5---3-1---1---1-|-----1-----------1-----1-----------1-|
G|-3s5---5---5---5-3---3---2---|---0---0-0h2p0-------0---0-0h2p0-----|
D|-----------------------3-3---|-----2---------2-------2---------2---|
A|-----------------------------|-3-----------------3-----------------|
E|-----------------------------|---------3-----------------3---------|

e|-3s5-3---0-------3-1---1-----|-------------------------------------|
B|-----------3-5-----------3-1-|-----1-----------1-----1-----------1-|
G|-3s5---5---5---5-3---3-------|---0---0-0h2p0-------0---0-0h2p0-----|
D|-----------------------3-3---|-----2---------2-------2---------2---|
A|-----------------------------|-3-----------------3-----------------|
E|-----------------------------|---------3-----------------3---------|

e|-------3---------------1---------|-------------------------------------|
B|---1-------1-------1-------1-----|-----1-----------1-----1-----------1-|
G|-3---3---3---3-0-----2-------2-0-|---0---0-0h2p0-------0---0-0h2p0-----|
D|-----------------3-------3-------|-----2---------2-------2---------2---|
A|---------------------------------|-3-----------------3-----------------|
E|---------------------------------|---------3-----------------3---------|

e|---------1-------------1p0-----------|-------------------------------------|
B|-------3-----3-------------1-------1-|-----1-----------1-----1-----------1-|
G|-----2-----------2---2---------2-----|---0---0-0h2p0-------0---0-0h2p0-----|
D|---0-------0---0---3---------3---3---|-----2---------2-------2---------2---|
A|-0-----------------------------------|-3-----------------3-----------------|
E|-------------------------------------|---------3-----------------3---------|

Verse:

C/A#                    F
Makeshift moon mends a broken sky
C         C/G    C             C/G
Fields of fallow still stands dry
Dm                F            C   C/G   C   C/G
Night not gentle, soon fortnight

Her mistake was to trust in him
His bodily excuse again
Hear the voices howl like the wind

Chorus:

         Am                  G/B  C    C/G   C   C/G
Said I'm tired of you coming home late
Dm           F           C   C/G   C   C/G
I will do as I please, Kate

There's no one gon' tell me how to be
Not for my sake, Tom, for the family

(Repeat intro)

Verse:

He read the guilt when she plead love
Got anxious and began to shove
Clouds moved in, kept the moon above
Curses raised the kids from bed
They fell down the stairs in time to see
The blood run warm down Kate's head

Chorus:

While the wounds, in silence, came to scar
Tom kept hittin' in a jukejoint bar
All the love vanished in the air
Filled with paper flowers and the angels' share

Coda:

e|-3s5-3---0-------------------|-------------------------------------|
B|-----------3-5---3-1---1---1-|-----1-----------1-----1-----------1-|
G|-3s5---5---5---5-3---3---2---|---0---0-0h2p0-------0---0-0h2p0-----|
D|-----------------------3-3---|-----2---------2-------2---------2---|
A|-----------------------------|-3-----------------3-----------------|
E|-----------------------------|---------3-----------------3---------|

e|-3s5-3---0-------3-1---1-----|-------------------------------------|
B|-----------3-5-----------3-1-|-----1-----------1-----1-----------1-|
G|-3s5---5---5---5-3---3-------|---0---0-0h2p0-------0---0-0h2p0-----|
D|-----------------------3-3---|-----2---------2-------2---------2---|
A|-----------------------------|-3-----------------3-----------------|
E|-----------------------------|---------3-----------------3---------|

e|---------------------------0---------------------------------|
B|-5-3---0-------------1---------5-3---0-------------1---------|
G|---------3-4---1-2---------------------3-4---1-2-------0-----|
D|-5---5---5---5-3---3-----2-----5---5---5---5-3---3-------2---|
A|-----------------------3-----------------------------3-------|
E|-------------------------------------------------------------|

e|-----------------------------3-|
B|-5-3---0---------------------0-|
G|---------3-4---1-2-----------0-|
D|-5---5---5---5-3---3-1-2---0-0-|
A|---------------------3---3---2-|
E|-----------------------------3-|
#----------------------------PLEASE NOTE-----------------------------#
# This represents the author's own work and interpretation of the    #
# song. To be used only for private study, scholarship, or research. #
#--------------------------------------------------------------------#

blog comments powered by Disqus