#----------------------------PLEASE NOTE-----------------------------#
# This represents the author's own work and interpretation of the    #
# song. To be used only for private study, scholarship, or research. #
#--------------------------------------------------------------------#

Artist: Vampire Weekend
 Album: Vampire Weekend
  Song: One Blake's Got A New Face

[http://www.indieguitartabs.com/bands/vampire_weekend/one_blakes_got_a_new_face.html]

Tabbed by: justin@indieguitartabs.com

[intro]
   A        F#m      D        Bm       
e|-5555555--2222222--5555555--77777777-
B|-5555555--2222222--7777777--77777777-
G|-6666666--2222222--7777777--77777777-
D|-7777777--4444444--7777777--99999999-
A|-7777777--4444444--5555555--99999999-
E|-5555555--2222222--xxxxxxx--77777777-

   A
e|-----------------------------------------------------------|
B|-----------------------------------------------------------|
G|-----------------------------------------------------------|
D|-----------------------------------------------------------|
A|-----------------------------------------------------------|
E|--5--5--5--------5--5--5-------5--5--5-------5--5--5-------|

(played on keyboard)
e|---------7777--------------9999------------7777-------------4444--
B|---------7777--------------9999------------7777-------------3333--
G|---------7777--------------9999------------7777-------------4444--
D|------------------------------------------------------------------ (x2)
A|------------------------------------------------------------------
E|-5--5--5-----------5--5--5---------5--5--5----------5--5--5-------

[verses]
e|---------7777----        ----------9999--
B|---------7777----        ----------9999--
G|---------7777----        ----------9999--
D|-----------------        ----------------
A|-----------------        ----------------
E|-5--5--5---------        --5--5--5-------
      Occident                  out on the weekend
      English Breakfast         tastes like Darjeeling

      The precedent's           already set now
      Spanish brownstone        with chairs of leather

e|----------7777---        ----------4444--
B|----------7777---        ----------3333--
G|----------7777---        ----------4444--
D|-----------------        ----------------
A|-----------------        ----------------
E|--5--5--5--------        --5--5--5-------
       That's the way          that we relax
       But she's too cute      to even ask

       You spend a week        in Old San Juan
       And Spanish waves       to roll along


[chorus] (continue verse chords)
Blake's got a new face (Blake's got a new face)

[bridge 1]
D    Bm        E7         E7
Nastiness will cause your doom
A        F#m       D       Bm    A
Turn and walk back to your room

[bridge 2]
D    Bm       E7   E7
Majesty's not overheard
A     F#m          D         Bm    A
Cryptographs can't stand the word

[ending]
D           Bm      E7       E7
Oh your collegiate grief has left you
A         F#m         D        Bm       A
dowdy in sweatshirts, absolute horror!

(little bass beat between verses)
   A     D      E    A
e|----------------------|
B|----------------------|
G|----------------------|
D|----------------------|
A|-------5------7--7----| repeat
E|-5--5--------------5--|