#----------------------------PLEASE NOTE-----------------------------#
# This represents the author's own work and interpretation of the    #
# song. To be used only for private study, scholarship, or research. #
#--------------------------------------------------------------------#

Artist: Vampire Weekend
 Album: Vampire Weekend
  Song: Cape Cod Kwassa Kwassa

[http://www.indieguitartabs.com/bands/vampire_weekend/cape_cod_kwassa_kwassa.html]

Tabbed by: Peter Matyskiela

intro/verse:
e|--2-2--5-5--3-2-0h2p0-----------------|
B|--3-3--3-3--3--------3---0---2----3---|
G|---------------------------0---2--2---|
D|--------------------------------------|
A|--------------------------------------|
E|--------------------------------------|

play this for the "is your bed made" part
e|-----------------------|
B|--0---2-2---3----------|
G|--0---2-2---2----------|
D|-----------------------|
A|-----------------------|
E|-----------------------|

play this the second time for "peter gabriel" 
e|--7-----7-----9-------9-----------|
B|----8-----8-----10------10--------|
G|------9-----9------11------11-----|
D|----------------------------------|
A|----------------------------------|
E|----------------------------------|

As a young girl
Louis Vuitton
With your mother
On a sandy lawn

As a sophomore
With reggaeton
And the linens
You're sitting on

Is your bed made?
Is your sweater on?
Do you want to
Like you know I do

But this feels so unnatural
Peter Gabriel too

Can you stay up
To see the dawn
In the colors
Of Bennetton?

Is your bed made
Is your sweater on
Do you want to
Like you know I do

But this feels so unnatural
Peter Gabriel too

Is your bed made
Is your sweater on
Do you want to
Like you know I do