Cousins Tab

More Vampire Weekend Tabs

Artist: Vampire Weekend
 Album: Contra
  Song: Cousins

Tabbed by: Kurt Santana

e|-----------------------|--------------------------|
B|----------5------------|----------5---------------|
G|---1---3--3------------|---1---3--3-x5------------|
D|-2---4----4------------|-2---4----4---------------|
A|-----------------------|--------------------------|
E|-----------------------|--------------------------|

e|-----------------------|--------------------------|
B|----------5------------|----------4---------------|
G|---1---3--3------------|---1---3--4---------------|
D|-2---4----4------------|-2---4--------------------|
A|-----------------------|--------------------------|
E|-----------------------|--------------------------|


You found a sweater on the ocean floor
They're gonna find it if you didnít close the door.
You and this model sit outside the side-
In a house on a street they wouldnít park on the night.

Dad was a risk taker.
His was a shoe maker.
You greatest hits 2006,
Little listmaker.

Caught in the melody,
You wait in the car.
You were born with ten fingers and you're gonna use
them all.

Interest in colors
I discover myself
If your art life is gritty you'll be toasting my health
If an interest in culture should be lining the walls
When your birth right is interest you could just accrue
it all

Me and my cousins,
and
You and your cousins
Itís a line that is always running.
Me and my cousins,
You and your cousins,
I can feel it coming 
#----------------------------PLEASE NOTE-----------------------------#
# This represents the author's own work and interpretation of the    #
# song. To be used only for private study, scholarship, or research. #
#--------------------------------------------------------------------#

blog comments powered by Disqus