Molecules Tab

More Thundrah Tabs

Artist: Thundrah
  Song: Molecules

Tabbed by: mito.gegic@gmail.com

Tuning: STANDARD
Notes: Before anyone jumps at the layout, listen to the song. I tabbed it out from beggining to end since there are too many parts to stuff them down the Verse/Chorus thingy. Comments are welcome. 

You can listen to the song on this Myspace page: http://www.myspace.com/thundrah/music/songs/molecules-19773653

I: 4x
 e----------------------------------------------
 B----------------------------------------------
 G----------------------------------------------
 D-----10-10--7-7---6-6-6-6---------------------
 A-----7--7---7-7---7-7-7-7---------------------
 E---0------0-----0-----------------------------

II: 2x
 e--------------------------------------------------
 B------------x------------------------x------------
 G----x---x---0x-----7--7-7------------0x-x---x--x--
 D----9---7----0-----9--9-9-----9---7---0-10--10-10-
 A----10--9---(9p)---0--0-0-----10--9-----9---9--9--
 E--0------------------------0------------8---8--8--

III:
 e------------------------------------------------------
 B------------------------------------------------------
 G--------------------x--7~-------10-10---10-10---10-10-
 D--x--9~-------------x-(0)-------12-12---10-10---9--9--
 A--x-(0)-----------------------------------------------
 E------------------------------------------------------

IV: 8x
 e-------------------------------------------- ------------
 B----------------------------0--------------- -----(0)----
 G-----2p1----------2p1----------------------- ------4-----
 D---------0------2-----0---0---0-0-0h2------- ------0-----
 A-----------2------------2------------------- ------------
 E--0!----------0------------------!8th!------ -end on 8th-
! hit only firts time

V
 e-------------------------------------------------
 B---0-0----0-0------------------------------------
 G---x-x----x-x------------------------------------
 D---7-7----6-6------feedback----------------------
 A---9-9----7-7------------------------------------
 E-------------------------------------------------

VI
 e--------------------------------------------------------
 B--0--0----0----0--0--0--0-------17-17-17-17-16-16-16-16-
 G--x--x----x----x--x--x--x-------16-16-16-16-16-16-16-16-
 D--12-12---12~--12-12-12-12---12/16-16-16-16-16-16-16-16-
 A--11-11---14~--14-14-14-13------------------------------
 E--------------------------------------------------------
VII
 e-----------------------------------------------------------
 B---0--0--0--0--0------0--0--0--0--0-0-0-0-0-0-0-0-0-0-0-0--
 G---x--x--x--x--x------x--x--x--x--x-x-x-x-x-x-x-x-x-x-x-x--
 D---9--9--9--9--8-~----9--10-10-10-7-7-7-7-6-6-6-6-6-6-6-6--
 A---10-10-10-10-10~----10-10-10-10-9-9-9-9-7-7-7-7-7-7-7-7--
 E-----------------------------------------------------------

 e----------------------------------
 B---0--0--0--0--0-0-0-0-0~---------
 G---x--x--x--x--x-x-x-x-x----------
 D---9--10-10-10-7-7-7-7-6~---------
 A---10-10-10-10-9-9-9-9-7~---------
 E----------------------------------

VIII
 e-------------------------------------------------
 B-----0-0--0-----0-0-0-0--------------------------
 G-----x-x--x-----x-x-x-x--------------------------
 D-----7-7--4-------x-x----------------------------
 A-----7----5-----x-7-5-x--------------------------
 E---0------------7-x---7-----------0~-------------
     <     play 4x      >           feedback

IX
 e------(3b)---------------------------------------
 B-------0------------0--------0--------------0----
 G-------x------------x--------x--------------0----
 D-------5------------9--------7--------------0----
 A-------5------------9--------7-------------------
 E---0-0----------0-0------0-0---------------------


END

P.S.: Actualy the end is a couple of reverberating sounds...

Tablature explanation:
######################
B	Full Bend
b	1/2  Bend
bb	1/4  Bend
~~~~~	Vibrato
^(#)	Bend to (#)
/	Slide up
\	Slide down
h	Hammer-on
p	Pull-off
(#)	Ghost note
%	Rest
######################

#----------------------------PLEASE NOTE-----------------------------#
# This represents the author's own work and interpretation of the    #
# song. To be used only for private study, scholarship, or research. #
#--------------------------------------------------------------------#

blog comments powered by Disqus