#----------------------------PLEASE NOTE-----------------------------#
# This represents the author's own work and interpretation of the    #
# song. To be used only for private study, scholarship, or research. #
#--------------------------------------------------------------------#

Artist: Throw Me The Statue
 Album: Moonbeams
  Song: Lolita

[http://www.indieguitartabs.com/bands/throw_me_the_statue/lolita.html]

[intro]
A  A  D  Bm (x2)

A
Lolita, I gotta see ya
        D             Bm
My gratifier when she pulls me in
      A
Those young girls love automatic
          D
I want to make you lose your brain
Bm
   for all I know
 
A
I come on over and she’s pulling at my shirt
           D
Like she’s telling me to stay
Bm
    Well, take a look over here
A
C’mon, I got the bullets in my head
        D                   Bm
And she asks me why I came

 
F#m              E
Shakin’ off the dusty cape
Bm            A
Lacin’ it up again
‘Cause she used to love it
F#m          E
So I bury my shame
        Bm                  A          (Am)
She was nineteen and we all rearrange

[break]

riffA
      E     E      A  B
e|----------------------------
B|----9-9---9-9---------------
G|----9-9---9-9---------------
D|----9-9---9-9--------------- (x4)
A|----7-7---7-7----x--x-x--x--
E|-----------------5--7-7--7--


(repeat riffA over lyrics)
We could do it all and it’d all go faster
Things could multiply at appalling rates
Then we’d lose our heads
And we’d still go faster
Even on our birthdays

[break]
(I can't tab this out completely, but
it's a combination of fills on similar
to what I've put here. End on E.)

(fills)
e|------------------7-7---5---5---
B|-9-9--------------7-7---5---5---
G|-9-9--7-----7--9--8-8---6---6---
D|-9-9----9-7-------9-9---7---7---
A|-7-7--------------9-9---7---7---
E|------------------7-7---5---5---

e|-------------------7-7---5---5---
B|-9-9---------------7-7---5---5---
G|-9-9--9-7---9~~~---8-8---6---6---
D|-9-9------9--------9-9---7---7---
A|-7-7---------------9-9---7---7---
E|-------------------7-7---5---5---

E

(riffB)
   D             B     F#m
e|--------------------------
B|---------------(3)--------
G|-7--7-7--7-7----4----2-2--
D|-7--7-7--7-7----4----4-4-- (x2)
A|-5--0-5--0-4--0-2--x-4-4--
E|-------------------x-2-2--


(repeat riffB over these lyrics) 

riffA
Every night I pray
She comes around my house to stay
Every night I pray
She comes around my house to stay


    A
The hunger has not receded
             D               Bm
Those little moments when it wraps my head
     A
The feeblest offers are taking it off
    D                         Bm
‘Cause with all my heart in with blood (lyrics ???)
 
F#m              E
Shakin’ off the dusty cape
Bm                  A
Lacin’ it up again
 A
‘Cause she used to love it
F#m          E
So I bury my shame
        Bm                  A          (Am)
She was nineteen and we all rearrange

riffA
      E     E      A  B
e|----------------------------
B|----9-9---9-9---------------
G|----9-9---9-9---------------
D|----9-9---9-9--------------- (x4)
A|----7-7---7-7----x--x-x--x--
E|-----------------5--7-7--7--


(repeat riffA over lyrics)
Alright, we could it all and it’d all go faster
Things could multiply at appalling rates
Then we’d lose our heads
And we’d still go faster
Even on our birthdays

[break]
(Use same fills on the E chord from above. End on E.)

E

(riffA)
   D             B     F#m
e|--------------------------
B|--------------------------
G|-7--7-7--7-7----4----2-2--
D|-7--7-7--7-7----4----4-4-- (x2)
A|-5--0-5--0-4--0-2--x-4-4--
E|-------------------x-2-2--

Every night I pray
She comes around my house to stay
And every night I pray
She comes around my house to stay