#----------------------------PLEASE NOTE-----------------------------#
# This represents the author's own work and interpretation of the    #
# song. To be used only for private study, scholarship, or research. #
#--------------------------------------------------------------------#

Artist: Thee Silver Mt Zion 
 Album: 13 Blues for Thirteen Moons
  Song: Blindblindblind

[http://www.indieguitartabs.com/bands/thee_silver_mt_zion/blindblindblind.html]

Tabbed by: Todd

Intro and verse:
e|-------------------------------------------|
B|-------------------------------------------|
G|-------------------------------------------|
D|---8------6-----4-------3-4----------------|
A|-9---9--8---8-6-------6------4-------------|
E|--------------------7----------2-4-6-------|

e|--------------------------------------------|
B|--------------------------------------------|
G|--------------------------------------------|
D|---8---/11-9-8---4------3-4--/6---3--4-3----| 1x variation
A|-9---9---------6------6---------4--------4--|
E|--------------------7-----------------------|

           There ain't none...
e|---------4---7---2-------------|
B|---------4---7---2---6---------|
G|---------5---8---3---6---------|
D|----4-6--6---9---4---6---------|  (G#M BM F#M C#M)
A|--6------6---9---4---4---------|
E|---------4---7---2-------------| 

	
Everything else is just a variation on the above.