13 Blues for Thirteen Moons Tab

More Thee Silver Mt Zion Tabs

Artist: Thee Silver Mt Zion 
 Album: 13 Blues for Thirteen Moons
  Song: 13 Blues for Thirteen Moons

Tabbed by: Todd

Intro and verse:
e|--------------|
B|--------------|
G|-7--5-5--7----|
D|-7--5-5--7----|
A|-5--3-3--5----|
D|-0-------0----|

  5:06
e|---------------------------------------|
B|---------------------------------------|
G|---------------------------------------|
D|-----------------3-2-----3-5-----------|
A|---------------------3-5---------------|
D|--7-9-10---9-7-3---------------3-0-----|


e|----------------------|-------------------------|
B|----------------------|-------------------------|
G|-------------3p0------|-------------------------|
D|-----------5-----3----|-----------5-3p0---------|
A|---0-3-5-----------5--|---0-3-5-----------3-----|
D|-0-------5------------|-0-------5-------3-------|

Everything else is basically a variation on the above. 

#----------------------------PLEASE NOTE-----------------------------#
# This represents the author's own work and interpretation of the    #
# song. To be used only for private study, scholarship, or research. #
#--------------------------------------------------------------------#

blog comments powered by Disqus