#----------------------------PLEASE NOTE-----------------------------#
# This represents the author's own work and interpretation of the    #
# song. To be used only for private study, scholarship, or research. #
#--------------------------------------------------------------------#

Artist: The Tallest Man on Earth
 Album: Shallow Grave
  Song: The Gardener

[http://www.indieguitartabs.com/bands/the_tallest_man_on_earth/the_gardener.html]

Tabbed by: joseph_rogers22@hotmail.com

Based on a live performance.

Tuning: DADGAD 
Capo: 7 (On the album, it's capo 6 and played a bit differently.)

Intro:
e|-0-|-0-|
B|-0-|-0-|
G|-2-|-0-|  
D|-0-|-2-| 
A|---|---| 
E|---|---| 

Verse:             
e|-0-|-0-|-0----|-0-|-0----| 
B|-0-|-0-|-0----|-0-|-0-(4)| 
G|-2-|-0-|-2(4)|-0-|-0----|  
D|-0-|-2-|-0----|-4-|-2----| 
A|-0-|-5-|-2----|-x-|-0----| 
E|-0-|---|-x----|-5-|------| 

Chorus:(1st&3rd times:)  (2nd time:) 
e|-0-|-0---|-0-2--4-|  |-0-|----7| |-0-| |-0-|
B|-0-|-0---|-0-------|  |-0-|-----| |-0-| |-0-|
G|-0-|-0(4)|-2-------|  |-2-|-2s4-| |-0-| |-0-|
D|-0-|-2---|-0-------|  |-0-|-----| |-0-| |-2-|
A|-2-|-0---|---------|  |---|-----| |-2-| |-0-|
E|-5-|-x---|---------|  |---|-----| |-5-| |---|

(in yr eyes babe...)
e|-0-|-0---|-0| |-0-|
B|-0-|-0---|-0-| |-0-|
G|-2-|-0(4)|-0-| |-7-|
D|-0-|-2---|-4-| |-x-|
A|-0-|-0---|-x-| |-5-|
E|-0-|-x---|-5-| |-0-|


I sense a runner in the garden
Although my judgements known to fail
Once built a steamboat in a meadow
Cos I'd forgotten how to sail

I know the runner's going to tell you
There ain't no cowboy in my hair
So now he's buried by the daisies
So I could stay the tallest man in your eyes, babe

I sense a spy up in the chimney
From all the evidence I've burned
I guess he'll read it in the smoke now
And soon to ashes I'll return

I know the spy is going to tell you
It's not my flag up in the pole
So now he's buried by the lilies
So I could stay forever more in your eyes, babe

I sense a leak inside my phone now
From all the lies I have told
I know he has your private number
And soon he'll make that vicious call

I know the leak is going to tell you
There ain't no puppy in your leash
So now he'll fertilize the roses
So I could stay the king you see
In your eyes, babe (x2)

So now we're dancing through the garden
And what a garden I have made
And now that death will grow my jasmine
I find it soothing I'm afraid

Now there is no need for suspicion
There ain't no frog kissing your hand
I won't be lying when I tell you
That I'm a gardner I'm a man
In your eyes babe (x3)