Valentine Tab

More The School Tabs

Artist: The School
 Album: Loveless Unbeliever
  Song: Valentine

Tabbed by: IL (octavechords@gmail.com)


E|------------------------------------------------------------
B|------------------------------------------------------------
G|---------------------------------6-4-6-4--------------------
D|------4-4-----------4-4----4----4-------4-7-------4-4-------
A|---4-7-7-7-4-7---4-7-7-7-4-7---5---------------4-7-7-7-4-7--
E|5-5-----------5-5-----------7-7------------5--5--------------


D                                                 Em
Have you ever wondered, baby, how life could be? 
D                                                              Em
Spend some time in some far off places, spend some time with me
Bm                 E                    Bm                             E
Get out of the hole you’re in and come on out and see

                       A                           F#m
So won’t you tell me that you’ll think about it
   A                     F#m       
I really need to hear about it
       Bm                                    E                          Bm                                 E
You know she doesn’t understand you baby, she’s never gonna let you be
                       A                           F#m
So won’t you tell me that you’ll think about it
   A                     F#m       
I really need to hear about it
               Bm                               E
You know she doesn’t understand you baby
      Bm                                E                 A 
She’s never gonna let you be her valentine



E|------------------------------------------------------------
B|------------------------------------------------------------
G|---------------------------------6-4-6-4--------------------
D|------4-4-----------4-4----4----4-------4-7-------4-4-------
A|---4-7-7-7-4-7---4-7-7-7-4-7---5---------------4-7-7-7-4-7--
E|5-5-----------5-5-----------7-7------------5--5-------------


(x2)
the second time, you can play A A Bm A over this riff



                       A                           F#m
So won’t you tell me that you’ll think about it
   A                     F#m       
I really need to hear about it
               Bm                               E
You know she doesn’t understand you baby
      Bm                                E  
She’s never gonna let you be 
                       A                           F#m
So won’t you tell me that you’ll think about it
   A                     F#m       
I really need to hear about it
               Bm                               E
You know she doesn’t understand you baby
      Bm                                E                 A      D
She’s never gonna let you be her valentine
         E       A    D
Her valentine
        E     A
Her valentine

D   E   A
D   E   A

#----------------------------PLEASE NOTE-----------------------------#
# This represents the author's own work and interpretation of the    #
# song. To be used only for private study, scholarship, or research. #
#--------------------------------------------------------------------#

blog comments powered by Disqus