Come Saturday Tab

More The Pains Of Being Pure At Heart Tabs

Artist: The Pains Of Being Pure At Heart
 Album: The Pains Of Being Pure At Heart
  Song: Come Saturday

Tabbed by: Jimbob (jimbobriley(at)gmail.com)

MAIN RIFF/VERSE (use power chords if you like):
| E    |       | A G#m  | F#m    |

E                               A G#m  F#m
    I can't stand to see your picture
    On the dresser, where I left you
    Another sunny day... ...and you're 80 miles 
away...                  ...Tuesday

------- CHORUS
B          F#m              A         
  But come Saturday, you'll come to stay
   E                      B
You'll come to sway in my arms
    F#m                 A               E
Who cares, if there's a party somewhere
                    B
We're going to stay in
     F#m              A
Come Saturday, you'll come to say
E                B
Maybe there's no harm
     F#m            A
In a wasted summer, with no drummer
B                       [back to main riff]
We're going to stay in...

----------------

Now I could stand to be a fixture
In your faded family pictures
But I can't see into the sunset
All I know is that you're perfect..... right now

REPEAT CHORUS
SOLO [over main riff]
e|----------------------------------
B|----------------------------------
G|--------------------------9~-11~--
D|--99-999-9-99-9999-11-11~--------- (x2)

e|---------------------------------------------------------------
B|--10-9-7-9-7-----10-9-7-9-7-----10-9-7-9-7----10-9-7-9-7-------
G|-------------9--------------9--~-----------9-------------9--6--
D|---------------------------------------------------------------

e|------------------------------------------------------------7--
B|--10-9-7-9-7-----10-9-7-9-7-----10-9-7-9-7----10-9-7-9-7-------
G|-------------9--------------9--~-----------9-------------9-----
D|---------------------------------------------------------------

------- BRIDGE
B                          F#m
You don't have to write at all
                         Asus2
You don't have to make a call
                     E
I know that you will come
                     B
Again and again and again
                           F#m
You don't have to dress to please
                    Asus2
Perhaps undress for me
                     B
I know that when you come
                 E [main riff]
We'll be staying in

[Main riff to end]

#----------------------------PLEASE NOTE-----------------------------#
# This represents the author's own work and interpretation of the    #
# song. To be used only for private study, scholarship, or research. #
#--------------------------------------------------------------------#

blog comments powered by Disqus