Calling In Tab

More The Delines Tabs

Artist: The Delines
 Album: Colfax
  Song: Calling In

Tabbed by: Jimbob

/ D   / Am7  / x 8
/ G   / C    / x 2

Bm         Am
/ You call in 
Bm              Am
/ and I'll call in
Bm                         Am
/ And flip to see who goes down to Slim's
                 D
For a pitcher of gin fizz

Bm                          Am
/ Stay in bed and watch the day fade
Bm                                   Am
/ All the people on the street below / breaking their backs
Bm                             Am
/ Trying not to miss their bus / and hoping some fat old man 
      Bm                         Am
won't give 'em the sack / Suckers drying up in line
              D
Tell me we'll never have to go back

/ D   / Am7  / x 4
/ G   / C    / x 3

Bm                      Am
/ Darkness ain't such a hard road
/ If we don't go down it alone
/ Darkness ain't such a hard road
/ Let's never go back
/ Darkness ain't such a hard road
/ If we don't go down it alone
/ Darkness ain't such a hard road
/ Let's never go back / let's never go back


A little something to play in the intro / instrumental middle 8 parts:
   D                  Am7
e -2---2-2h3p2-0------0---------------
B -3---3-3-----3-3-(3)1----1-0--------
G -2---2---------2-(2)0----0-----0----
D -0---0--------------2--2-----2---2--
A --------------------0--0-----0------
E ------------------------------------
   G                C
e -3----------------------------------
B -0-------------------------0h1-0----
G -0-------------0--0h2-0----0-----0--
D -0-----------0----2--------0h2------
A -2-------0h2----0-3------3----------
E -3--3-3-3---------------------------

There are a few variations on this, but it's more or less there.
#----------------------------PLEASE NOTE-----------------------------#
# This represents the author's own work and interpretation of the    #
# song. To be used only for private study, scholarship, or research. #
#--------------------------------------------------------------------#

blog comments powered by Disqus