#----------------------------PLEASE NOTE-----------------------------#
# This represents the author's own work and interpretation of the    #
# song. To be used only for private study, scholarship, or research. #
#--------------------------------------------------------------------#

Artist: The Clientele
 Album: Strange Geometry
  Song: I Can't Seem To Make You Mine (ver 2)

[http://www.indieguitartabs.com/bands/the_clientele/i_cant_seem_to_make_you_mine_ver_2.html]

Tabbed by: JJmig (JJmigJJ@gmail.com)

Tuning: Standard, Capo 2

Intro:
    D                    G/F#              D                  G/F#
e|---------------2-------2-------------0--------0------2------2-----------0-
B|--------3-----------------3------------------------3----------3-----------
G|-----2-------2------2--------0-----0--------2------------2------0-----0---
D|--0--------0------0----------0---0-------0-------0-----0--------0---0-----
A|--------------------------------------------------------------------------
E|-----------------------3-------3----------------------------3-----3-------

    A      Asus4        A6 A7  G/F#            A    Asus4  
e|-----------------0-----2-3-------2----------------------------------------
B|------2---3--------2---------------3--------------2---3-2----------2-0----
G|----2---2---2--------2---------------0---0------2---------2------2--------
D|-------------2-----------------0-------0-----------------------0----------
A|--0-------0-----------------------------------0-----0--------0------------
E|-----------------------------3--------------------------------------------

The Rest of the song is essentially the same, just pick these chords similar to above.


     Dsus2 or D      G/F#     A then Asus4    with the occasional C
e|---0--------2------2--------0------0----------------------------0---------
B|---3--------3------3--------2------3----------------------------1---------
G|---2--------2------0--------2------2----------------------------0---------
D|---0--------0------0--------2------2----------------------------2---------
A|-------------------X--------0------0----------------------------3---------
E|-------------------3-----------------------------------------------------|

D                       G
In the silence of the garden
D                      G
Mist arising on the wind
D                          C
And the beast is pondering love love love
          G                A Asus4  G
'Till the rusty nails grow dim

D               G
I can't seem to make you mine
D                    G
Through the long and lonely night
D            G             A Asus4
And I try so hard, darling
D                    G
But the crowd pulled you away
D                   G
Through the ribbons and the rain
D           G                A Asus4   G
And the ivy coiled around my hand

So I lingered with the people
In the silent August glade
But the rain has brought the night
And the night has brought the rain

I can't seem to make you mine
Through the long and lonely night
And I try so hard, darling
But the crowd pulled you away
Through the ribbons and the rain
And the ivy coiled around my hand