#----------------------------PLEASE NOTE-----------------------------#
# This represents the author's own work and interpretation of the    #
# song. To be used only for private study, scholarship, or research. #
#--------------------------------------------------------------------#

Artist: The Antlers
 Album: Burst Apart
  Song: Parentheses

[http://www.indieguitartabs.com/bands/the_antlers/parentheses.html]

Tabbed by: anton hallmann

Tuning: standard

INTRO + VERSE:
(tremolo)
e|---------------19~~---------------------------------------------|
B|--17/-----------------------------------------------------------|
G|----------------------------------------------------------------|
D|----------------------------------------------------------------|
A|----------------------------------------------------------------|
E|----------------------------------------------------------------|

One broken wing,
Soaring and suffering,
Arm in a sling,
I donít owe you anything.

Iím a bad absentee,
You know when I want to leave.
Courtesy of lyricshall.com
So close up your knees,
And Iíll close your parentheses.

CHORUS:
(sometimes open E just ones)
e|----------------------------------------------------------------|
B|--8-8-----7-7-----4-4-----5-5-----------------------------------|
G|--9-9-----8-8-----5-5-----4-4-----------------------------------|
D|----------------------------------------------------------------|
A|----------------------------------------------------------------| 4x
E|------0-0-----0-0-----0-0-----0-0-------------------------------|

Iím a bad amputee,
With no phantom memory.
So close up your knees,
And Iíll close your parentheses.

OUTRO:
Em (barre 12th fret)
strum to the rhythm or hit just few times.