#----------------------------PLEASE NOTE-----------------------------#
# This represents the author's own work and interpretation of the    #
# song. To be used only for private study, scholarship, or research. #
#--------------------------------------------------------------------#

Artist: The Antlers
 Album: Burst Apart
  Song: No Widows

[http://www.indieguitartabs.com/bands/the_antlers/no_widows.html]

Tabbed by: anton hallmann

Tuning: standard

INTRO:
e|-----------------------------------------------|
B|-----12-13-12-------12------12-13-12-----------|
G|--14----------14-12------14----------14-12-14--|
D|-----------------------------------------------|
A|-----------------------------------------------|
E|-----------------------------------------------|

e|-----------------------------------------------|
B|-----12-13-12---------------12-13-12-----------|
G|--14----------14-12-14---14----------14-12-----|
D|-------------------------------------------14--|
A|-----------------------------------------------|
E|-----------------------------------------------|

e|-----------------------------------------------|
B|-----12-13-12-------12------12-13-12-----------|
G|--14----------14-12------14----------14-12-14--|
D|-----------------------------------------------|
A|-----------------------------------------------|
E|-----------------------------------------------|

e|-----------------------------------------------|
B|-----12-13-12-------15------12-13-12-----------|
G|--14----------14-12------14----------14-12-----|
D|-------------------------------------------14--|
A|-----------------------------------------------|
E|-----------------------------------------------|


VERSE:
If I never get back home,
Thereís no garden overgrown,
No widows in the walls,
No widows left alone,

No shirts to hang or fold,
No kid out in the cold,
No widows on the walls,
No widows on the phone.

If Iím stuck out here alone,
If Iím stranded here all year,
With just nothing left at home,
No widows disappear.

If the wheels jump off the road,
Thereís no widows left to know,
No perfect love above,
No punishment below.


CHORUS:

e|--12--12--14--14-------------|
B|--13--12--15--15-------------|
G|--12--12--14--14-------------|
D|--14--14--16--16-------------|
A|-----------------------------|
E|-----------------------------|

When they shake, say the wings wonít break.
When they shake, say the wings wonít break.

(you can also use these chords for the second
verse strumming - if you like to have some)
e|--------2-2--|
B|--1-----3-3--|
G|--------2-2--|
D|--2--2--4-4--|
A|--3--2-------|
E|--3--0-------|

If Iím stuck out here alone,
If Iím stranded here all year,
With just nothing left at home,
No widows disappear.

If the wheels jump off the road,
Thereís no widows left to know,
No perfect love above,
No punishment below.

When they shake, say the wings wonít break.
When they shake, say the wings wonít break.