I Don't Want Love Tab

More The Antlers Tabs

Artist: The Antlers
 Album: Burst Apart
  Song: I Don't Want Love

Tabbed by: anton hallmann

Tuning: standard


INTRO:

both guitars play this twice:

guitar 1 
    F  C    F  C   Dm Am    F  C
e|--------------------------------|
B|--------------------------------|
G|-10--5---10--5----7--2---10--5--|
D|-10--5---10--5----7--2---10--5--|
A|--8--3----8--3----5--0----8--3--|
E|--------------------------------|

guitar 2 
    F' C    F' C   Dm Am    F' C
e|--------------------------------|
B|--6--1----6--1----6--1----6--1--|
G|------------------7--2----------|
D|--7--2----7--2----7--2----7--2--|
A|--8--3----8--3----5--0----8--3--|
E|--------------------------------|

 
VERSE:
(only guitar 2 plays and you can play either normal F or
the F' - live it goes F' C Am G F(normal barre) C Am G)

 F'                 C                     Am                   G
You wanna climb up the stairs, I wanna push you back down
 F          C                            Am           G
But I left you inside, So you can push me around
 F'                C                Am             G 
If I leave before you, Then I walk out alone
 F                      C                      Am                G
Keep your hands on your side, When you follow me home


CHORUS(like intro - twice - both guitars):
                   F C F C Dm Am F C
I don't want love


VERSE:
(no guitar till "...so if i")

Wake up without?
You stumble home
I should of known they were wall
We slept in our cars?
F             C
So if I see you again
Am                  G
Desperate and stoned
 F                    C
Keep your prison locked up
Am                      G
And I will leave my gun at home


CHORUS (twice):
                   F C F C Dm Am F C
I don't want love


OUTRO:
(its hard to hear on the record so may
you watch a live version to get the point)

guitar 1 
e|------------------------------------|
B|--13---8---13---8---10--5---13---8--|
G|------------------------------------|
D|--14---9---14---9---12--7---14---9--|
A|--15--10---15--10---12--7---15--10--|
E|------------------------------------|

guitar 2
e|-------3-------------------0---0----|
B|---1-------1---1---1---1-3---3------|
G|-2---2---2---2---2---2--------------|
D|------------------------------------|
A|------------------------------------|
E|------------------------------------|

e|----------15----------------------------12---12--|
B|----13----------13----13----13----13-15---15-----|
G|-14----14----14----14----14----14----------------|
D|-------------------------------------------------|
A|-------------------------------------------------|
E|-------------------------------------------------|

end on Am

#----------------------------PLEASE NOTE-----------------------------#
# This represents the author's own work and interpretation of the    #
# song. To be used only for private study, scholarship, or research. #
#--------------------------------------------------------------------#

blog comments powered by Disqus