French Exit Tab

More The Antlers Tabs

Artist: The Antlers
 Album: Burst Apart
  Song: French Exit

Tabbed by: anton hallmann

Tuning: standard

INTRO:

guitar 1 (mute the strings with your strumming hand)
(...) just first time
e|--------------------------------------------------------------------|
B|--------------------------------------------------------------------|
G|--------------------------------------------------------------------|
D|--------------------------------------------------------------------|
A|--------------------------------------------------------------------|
E|-(12h13-12)-17-17-17-17--12h13-13-13-13-6h8-3-3-3-3-6h8-8-8-8-6h8---|

guitar 2 (listen to piano rhythm)
e|------------13----------------------------------------8-------------|
B|------------13------------------------------8---------8-------------|
G|------------14------------------------------9---------9-------------|
D|------------15------------------------------9--------10-------------|
A|------------15------------------------------7--------10-------------|
E|------------13----------------------------------------8-------------|


VERSE:

guitar 2
e|------------------------------------------------------------------|
B|------------------------------------------------------------------|
G|------------------------------------------------------------------|
D|------------------------------------------------------------------|
A|-------8---------------------7------------------------------------|
E|----------------------------------------------------8-------------|
	Every time we speak, you are spitting in my mouth.
If I donít take you somewhere else, 
Iím gonna pull my teeth right out.


CHORUS:
guitar 1 (mute the strings with your strumming hand)
e|------------------------------------------------------------------|
B|------------------------------------------------------------------|
G|------------------------------------------------------------------|
D|------------------------------------------------------------------|
A|------------------------------------------------------------------|
E|--17-17-17-17--12h13-13-13-13-6h8-3-3-3-3-6h8-8-8-8-6h8-----------|
guitar 2
e|---1----------1---------------------------------------------------|
B|---1----------1-----------8---------------------------------------|
G|---2----------2-----------9-----------9---------------------------|
D|---3----------3-----------9----------10---------------------------|
A|---3----------3-----------7----------10---------------------------|
E|---1----------1-----------------------8---------------------------|

e|-----------------5------------------------------------------------|
B|---6-8--66-8--66----66-8--65-6--55-6--5---8-5---6-5---------------|
G|----------------------------------------5-----------(5)-----------|
D|------------------------------------------------------------------|
A|------------------------------------------------------------------|
E|------------------------------------------------------------------|


VERSE:
Every time we meet, you are shrieking in my ear.
If I donít take you somewhere else, youíre gonna make this sin sincereÖ
Come on.

CHORUS


BRIDGE + VERSE:

guitar 1
F F Em C

Everyone I loved kept me tangled in my heart,
Youíll tie that knot a bit too loose, not enough to tease apartÖ
Come on.

Everyone I hold holds me strangled, sweet and smart.
Iím not a puppy you take home, donít bother trying to fix my heart. 

CHORUS

OUTRO
go on with F Em and C

guitar 2 little background bit
e|---8-10-8--8-10-8--7-8-7--7-8-7---------------------------|
B|----------------------------------------------------------|
G|----------------------------------------------------------|
D|----------------------------------------------------------|
A|----------------------------------------------------------|
E|----------------------------------------------------------|




#----------------------------PLEASE NOTE-----------------------------#
# This represents the author's own work and interpretation of the    #
# song. To be used only for private study, scholarship, or research. #
#--------------------------------------------------------------------#

blog comments powered by Disqus