Big Kid Table Tab

More Thao Tabs

Artist: Thao
 Album: We Brave Bee Stings And All
  Song: Big Kid Table

Tabbed by: justin@indieguitartabs.com

Capo 1

(all chords and tabs are relative to the capo)

[intro]

   Bm/D              A
e|------10------|  |--------------|
B|--12------12--|  |-------10-----|
G|----11--11----|  |---0--------0-|
D|-0------------|x4|-----11--11---| x4
A|--------------|  |-12-----------|
E|--------------|  |--------------|

e|------12------|  |--------------|
B|--12------12--|  |-------10-----|
G|----11--11----|  |---0--------0-|
D|-0------------|x4|-----11--11---| x4
A|--------------|  |-12-----------|
E|--------------|  |--------------|

[verse]

   F#m        F#msus4
e|-5--5--5--5-7b------------------|
B|-7--7--7--7-7b------------------|
G|-6--6--6--6-6b------------------|
D|--------------------------------|
A|--------------------------------|
E|--------------------------------|

   Em               A7
e|-0-0-0---0-0-0----0-0-0-0-0-0-0-0-|
B|-0-0-0---0-0-0----2-2-2s3-2-2-2-3-|
G|-0-0-0-0-0-0-0-0--0-0-0-0-0-0-0-0-|
D|-2-2-2-x-2-2-2-x--2-2-2s3-2-2-2-3-|
A|-2-2-2-1-2-2-2-1--0-0-0-0-0-0-0-0-|
E|-0-0-0-0-0-0-0-0--x-x-x-x-x-x-x-x-|

   D
e|-2-2-2-2-2-2-2-2-|
B|-3-3-3-3-3-3-3-3-|
G|-2-2-2-2-2-2-2-2-|
D|-----------------|
A|-----------------|
E|-----------------|


[intro]
        Bm
You are strong, strong, strong,
         A
Stronger than me
       Bm
With a heart much more
          A
Much more lovely

[verse]
             F#m  (sus4)
And I reached high
           Em
As high as I was able
       A7
Such a small kid
       D
At the big kid table

[verse]
        F#m       (sus4)
And you follow me
  Em
Into the forest
           A7
Positioned and ready
      D
Ready for a kiss

[verse]
                 F#m         (sus4)
But I never gave you nothing
    Em
Not even to hope
             A7
Or wear around your neck
              D
Or rest upon your collarbone

[verse]
    F#m           (sus4)
But I've got reasons
       Em
I have been excused
          A7
I want to reconvene
          D
I want to tell the truth

[intro x3]

[verse]
          F#m         (sus4)
And it is not as though
         Em
I do not know it hurts me
          A7
It's just I drink only
           D
That which makes me thirsty

[verse]
       F#m       (sus4)
We are after all
    Em
locomooo-oo-ootives
    A7
Can not recall, reclaim
   D
Pretend we did not do it

[verse]
(oooh ah, oooh ah, oooh ah)

[verse]
    F#m           (sus4)
But I've got reasons
       Em
I have been excused
          A7
I want to reconvene
          D
I want to tell the truth

[intro x2]

#----------------------------PLEASE NOTE-----------------------------#
# This represents the author's own work and interpretation of the    #
# song. To be used only for private study, scholarship, or research. #
#--------------------------------------------------------------------#

blog comments powered by Disqus