Eva Luna Tab

More Tarkio Tabs

Artist: Tarkio
 Album: Omnibus
  Song: Eva Luna

Tabbed by: Michael Hutchinson (pennywiselives@hotmail.com)

*Note... rhythm and timing are for you to get...
I just laid out the notes in the order they appear.

I didn't tab out slides, or vibratos as you can hear where they are for yourself...
If not... it will still sound good if you have the rhythm right.


           E "A Caution Boat..."

e|-0-------0-------------------------------------------------------
B|-0-------0-------------------------------------------------------
G|-2-------1-------------------------------------------------------
D|-4-------2----------4--7-----7---4---7----11---------------------
A|-4-------2----------2--5--7--5--2---5--7--9----------------------
E|-2-------0-----------------5-------------5-----------------------
Thumb



e|------0---------0-0-0-0-0----------------------------------------
B|------0---------5-3-2-1-0----------------------------------------
G|-----------------------------------------------------------------
D|-----------------------------------------------------------------
A|-4-7-2----4-7----------------------------------------------------
E|-2-5-0----2-5----------------------------------------------------


#----------------------------PLEASE NOTE-----------------------------#
# This represents the author's own work and interpretation of the    #
# song. To be used only for private study, scholarship, or research. #
#--------------------------------------------------------------------#

blog comments powered by Disqus