Are You Swimming In Her Pools Tab

More Swan Lake Tabs

Artist: Swan Lake
 Album: Beast Moans
  Song: Are You Swimming In Her Pools

Tabbed by: insterstellarburst

Standard tuning

Intro
e--------------------------------------------------
b--------------------------------------------------
g--2-2---2-2---2-2---2-2---2-2---2-2---2-2---2-2---
d--3—-3--3—-3--3—-3--3—-3--3—-3--3—-3--3—-3--3—-3--
a--------------------------------------------------
E--------------------------------------------------

“(Will you be) swimming in her pools?..”
e---------------------------------------------------0—-1---0—-1--------
b---------------------------------------------------1—-3---1—-3--------
g--2-2---2-2---2-2---2-2----------------------------2—-2---2—-2----X2--
d--3--3--1--1--0--0--------5-5---5-5---5-5/--3-3----2—-0---2—-0----X2--
a---—--—--—--—--—--—-3—-3—-1—-1--1—-1--1—-1--1—-1—--0------0-----------
E----------------------------------------------------------------------

“And if you’re still there when it snows..”
e--1--0--1--0--3--
b--1--1--3--1--3--
g--2--0--2--2--0--
d--3--2--0--2--0--
a--3--3-----0--2--
E--1-----------3--

“Will you be coming back here?..”
e--0--3--1---1--3--1---1--3--1---1--3--1--
b--1--3--1---3--3--1---3--3--1---3--3--3--
g--2--0--2---2--0--2---2--0--2---2--0--2--
d--2--0--3---0--0--3---0--0--3---0--0--0--
a--0--2--3------2--3------2--3------2-----
E-----3--1------3--1------3--1------3-----


“(Are you) running up here river banks?..”
e---------------------------------------------------0—-1---0—-1--------
b---------------------------------------------------1—-3---1—-3--------
g--2-2---2-2---2-2---2-2----------------------------2—-2---2—-2----X2--
d--3--3--1--1--0--0--------5-5---5-5---5-5/--3-3----2—-0---2—-0----X2--
a---—--—--—--—--—--—-3—-3—-1—-1--1—-1--1—-1--1—-1—--0------0-----------
E----------------------------------------------------------------------

“How the lines that appear..”
e--1--0--1--0--3--
b--1--1--3--1--3--
g--2--0--2--2--0--
d--3--2--0--2--0--
a--3--3-----0--2--
E--1-----------3--

“Will you be coming back here?..”
e--0--3--1---1--3--1---1--3--1---1----
b--1--3--1---3--3--1---3--3--1---3----
g--2--0--2---2--0--2---2--0--2---2----
d--2--0--3---0--0--3---0--0--3---0----
a--0--2--3------2--3------2--3--------
E-----3--1------3--1------3--1--------


e--0--1---------0--1--1------0--1--------
b--1--3--3--3---1--3--3--3---1--3--3--3--
g--2--2--3--3---2--2--2--3---2--2--3--3--
d--2--0--3--3---2--0--0--3---2--0--3--3--
a--0-----1--1---0--------1---0-----1--1--
E----------------------------------------

“I hope you find your mother..”
e-----0----------
b--3--0----------
g--4--1------X3--
d--4--2------X3--
a--2--2----------
E-----0----------

“the-e-e-e-re”
e--1--0--1--0--3--
b--1--1--3--1--3--
g--2--0--2--2--0--
d--3--2--0--2--0--
a--3--3-----0--2--
E--1-----------3--

“You hit the ground running..”
e--3--2--2---------------------0--
b--3--3--3--5----------5-------1--
g--0--4--2--4----X4----4-------0--
d--0--4--0--2----X4----2-------2--
a--2--2-----2----------2-------3--
E--3--------0----------0--...-----

right after “please is not a word that I ever said quietly”
e--0-----3-----1---0--1--1-----0--
b--2--5--3--3--1---1--3--3--3--0--
g--2--6--0--4--2---2--2--3--4--1--
d--2--6--0--4--3---2--0--3--4--2--
a--0--4--2--2--3---0-----1--2--2--
E--------3-----1---------------0--

“You said your love was fierce..”
e---------------------------------------------------------
b----1-----1-----1-----1----------------------------------
g--2-2---2-2---2-2---2-2------------------------------X2--
d--3--3--1--1--0--0--------5-5---5-5---5-5/--3-3------X2--
a---—--—--—--—--—--—-3—-3—-1—-1--1—-1--1—-1--1—-1—--------
E---------------------------------------------------------

“You said your love was fierce, fierce, fierce..”
e--1--0--1--0--3----1--0--0-----1--
b--1--1--3--1--3----3--1--1--3--1--
g--2--0--2--2--0----2--0--2--3--2--
d--3--2--0--2--0----0--2--2--3--3--
a--3--3-----0--2-------3--0--1--3--
E--1-----------3----------------1--

“This child of the future..”
e--1--0--0--1—-3----1--0--0-----1--------
b--1--1--1--3--3----3--1--1--3--1--------
g--2--2--0--2--3----2--0--2--3--2----X2--
d--3--2--2--0--3----0--2--2--3--3----X2--
a--3--0--3-----1-------3--0--1--3--------
E--1----------------------------1--------
#----------------------------PLEASE NOTE-----------------------------#
# This represents the author's own work and interpretation of the    #
# song. To be used only for private study, scholarship, or research. #
#--------------------------------------------------------------------#

blog comments powered by Disqus