Trumpet, Trumpet, Toot! Toot! (Ver 2) Tab

More Sunset Rubdown Tabs

Artist: Sunset Rubdown
 Album: Random Spirit Lover
  Song: Trumpet, Trumpet, Toot! Toot! (Ver 2)

Tabbed by: Andrew Santorelli, Brian Wikoff

*This is how to play the beginning acoustic part of the song:
(by Peter Matyskiela)

The numbers above the chord are how many beats to strum each chord, 1 beat = 1 downstroke and 1 upstroke, in other words 4 beats would be up,down,up,down,up,down,up,down

    4     2     2     8
e|-----|-----|-----|-----|
B|--1--|--2--|--1--|--0--|
G|--0--|--0--|--0--|--0--|
D|--2--|--2--|--2--|--2--|
A|--3--|--3--|--3--|--3--|
E|-----|-----|-----|-----|*3

    4     2     2     8
e|-----|-----|-----|--3--|
B|--1--|--2--|--1--|--3--|
G|--0--|--0--|--0--|--0--|
D|--2--|--2--|--2--|--0--|
A|--3--|--3--|--3--|--2--|
E|-----|-----|-----|--3--|

    4     2     2     4     4
e|-----|-----|-----|-----|--0--|
B|--1--|--2--|--1--|--0--|--0--|
G|--2--|--2--|--2--|--2--|--1--|
D|--2--|--2--|--2--|--2--|--2--|
A|--0--|--0--|--0--|--0--|--2--|
E|-----|-----|-----|-----|--0--|



0:10 Tremolo Picking
E|-------------------
B|-------------------
G|--5t----6t--5t--4t-
D|-------------------
A|-------------------
E|-------------------
repeat

0:43 Up an octave
E|--8t-----9t--8t--7t--
B|---------------------
G|---------------------
D|---------------------
A|---------------------
E|---------------------
repeat

1:21 
E|--20t-----21t--20t--19t--
B|-------------------------
G|-------------------------
D|-------------------------
A|-------------------------
E|-------------------------
repeat

Solo:

2:45 - 

E|-15---------15/17---------16b17-13---------15b16r15-15b16-15b16r15-
B|----13v-12v-------13v-12v------------------------------------------
G|-----------------------------------14v-16v-------------------------
D|-------------------------------------------------------------------
A|-------------------------------------------------------------------
E|-------------------------------------------------------------------
		
----
			

E|-------------------------------------------------------------------------------------------------
B|-------------------------------------------15-15-------------------------------------------------
G|-------------------------14-14-16-16-17-17-------16-16-------------------------------14-14-16-16-
D|-------------14-14-17-17-------------------------------14-14-17-17-------14-14-17-17-------------
A|-15-15-17-17-------------------------------------------------------17-17-------------------------
E|-------------------------------------------------------------------------------------------------

E|-------------------15-15-17-17-19-19-20-20-22-22-19-19-------------------------------------------
B|-------15-15-17-17-------------------------------------17-17-20-20-------------------------------
G|-17-17-------------------------------------------------------------19-19-17-17-16-16-------------
D|-------------------------------------------------------------------------------------17-17-14-14-
A|-------------------------------------------------------------------------------------------------
E|-------------------------------------------------------------------------------------------------
					

----2x

4:30 - 
slight difference 
	

E|-------------------------------------------------------------------------------------------------
B|-------------------------------------------15-15-------------------------------------------------
G|-------------------------14-14-16-16-17-17-------16-16-------------------16-16-------------------
D|-------------14-14-17-17-------------------------------14-14-17-17-------------14-14-17-17-------
A|-15-15-17-17-------------------------------------------------------17-17-------------------17-17-
E|-------------------------------------------------------------------------------------------------

E|-------------------15-15-17-17-19-19-20-20-22-22-19-19-------------------19-19-------------------
B|-------15-15-17-17-------------------------------------17-17-20-20-------------17-17-20-20-------
G|-17-17-------------------------------------------------------------19-19-------------------19-19-
D|-------------------------------------------------------------------------------------------------
A|-------------------------------------------------------------------------------------------------
E|-------------------------------------------------------------------------------------------------
					


Ending
E|-------------------
B|-------------------
G|-------------------
D|-9-7-5-12-14-16----
A|-7-5-3-10-12-14-14-
E|----------------12-

You gotta memorize all the lines, and
Brother Thespian, you'll be fine
You gotta define your breath in beats
With a graduation pen, use mind

Stage left, enter Maggie, looking hurried,
She has a parcel in her arms
Are you the leopard, or a virgin,
Or the child in a grown man's beard
Worn out of place and hanging off his face
By the time the audience cheered?

And you were feeling pretty cocky
On the day you became an actor,
I know the thing I shouldn't say
So I'll leave it at this:
I hope you get what you're after
And if when you're out you see the hundredth rose
Fall from the sky,
Brother, stick that thing in the ground and
Say a heartfelt prayer for your safe arrival

I'd like to think that the actors never banded
I'd like to throw this trumpet down and go empty handed
The part of the virgin has been taken
So let me throw this trumpet down and go empty handed
If you're the virgin
Then I'm the stand-in

I'd like to think the actors never banded
I'd like to throw this trumpet down and go empty handed
Go "ah-ah, ah-ah, ah 

----------------------------
Created by Andrew Santorelli
Email: a.santorelli@gmail.com
Let me know what you think

This Version is corrected 
#----------------------------PLEASE NOTE-----------------------------#
# This represents the author's own work and interpretation of the    #
# song. To be used only for private study, scholarship, or research. #
#--------------------------------------------------------------------#

blog comments powered by Disqus