Shut Up I Am Dreaming Tab

More Sunset Rubdown Tabs

Artist: Sunset Rubdown
 Album: Shut Up I Am Dreaming
  Song: Shut Up I Am Dreaming

Tabbed by: veganbicyclist (http://wolfparade.nonstuff.com/forum/)

This is a tab I found on the Wolf Parade website, it is for the album 
version intro of Shut up I'm dreaming. It sounds great without a pick where 
you thumb the D string, and I use my index and middle to pluck the B and 
G's.  Sounds really amazing, I've seen the band play the song live and they 
never play it like the album, so it is tough to say if this is accurate to 
Spencer's original.  

e----------------------------------------------------------------| 
b---8------8-------8------8------7------7------7------7-----| 
g---9------9-------7------7------7------7------7------7-----| 
d-9---9-9---9-9-----9-9----9-9----9-9---9-9----9-9---9-| 
a----------------------------------------------------------------| 
e----------------------------------------------------------------| 


e----------------------------------------------------------------| 
b---5------5-------5------5------5------5------5------5-----| 
g---5------5-------5------5------5------5------5------5-----| 
d-5---5-5---5-5-----5-5----5-4----4-4---4-4----4-4---4-| 
a----------------------------------------------------------------| 
e----------------------------------------------------------------| 


e----------------------------------------------------------------| 
b---7------7-------7------7------7------7------7------7-----| 
g---9------9-------9------9------8------8------8------8-----| 
d-9---9-9---9-9-----9-9----9-9----9-9---9-9----9-9---9-| 
a----------------------------------------------------------------| 
e----------------------------------------------------------------| 

#----------------------------PLEASE NOTE-----------------------------#
# This represents the author's own work and interpretation of the    #
# song. To be used only for private study, scholarship, or research. #
#--------------------------------------------------------------------#

blog comments powered by Disqus