#----------------------------PLEASE NOTE-----------------------------#
# This represents the author's own work and interpretation of the    #
# song. To be used only for private study, scholarship, or research. #
#--------------------------------------------------------------------#

Artist: Sufjan Stevens
 Album: Michigan
  Song: Holland (ver 2)

[http://www.indieguitartabs.com/bands/sufjan_stevens/holland_ver_2.html]

Tabbed by: markhadrian [markhadrian@yahoo.com]

CAPO ON 6TH

INTRO 2X                                                    VERSE 1
e||--------------------------0---------------------------|  e||------------------------
B||----3-------3-----------3-----3---0---0-------0-------|  B||----3-------3-------30--
G||2-------02----------2---2-2-----2-------2-2---2---2-1-|  G||2-------02------2---2---
D||--2---2---0---0---0---0---2-2---------------2---2---2-|  D||--2---2---0---0---0-0---
A||0-------2-------------------------3-3-----------------|  A||0-------2---------------
E||----------------2-------------------------0---------0-|  E||----------------2-------

e||0-------------------0-----0|--------------------------0------------------------|
B||----3---0---0--------------|----3---------0-3-2-----------3---0---0-------0---0|
G||2-----2-------2-2-------2-1|2-------0---0-------2---2-2-----2-------2---2-----1|
D||2-2---------------2---2---2|--2---2---2-----0-----0---2-2-------------2-------2|
A||--------3-3----------------|0-------2-------------------------3-3--------------|
E||----------------0----------|------------------------------------------0-----0--|

e||-----------------------0--------------------------|-----------------------0---0---
B||----3-------3-------30-----3---------------0------|----3-------3-------30---------
G||2-------02------2---2--2-----2-2---0---2---2---2-1|2-------02------2---2--2-----2-
D||--2---2---0---0---0-0--2-2-----2-2---2---2---2---2|--2---2---0---0---0-0--2-2-----
A||0-------2-----------------------------------------|0-------2----------------------
E||----------------2----------------------0---------0|----------------2--------------
                   
                                                             
                                                     BRIDGE TO VOCALIZATION
e||-----------------------0---0----------------------|--------------------|
B||----3-------3-------30---------0---0-------0------|--------------------|
G||2-------02------2---2--2-----2---------2---2---2-1|------------------2-|
D||--2---2---0---0---0-0--2-2-----2-2---2---2---2---2|2---2---2---2---2---|
A||0-------2-----------------------------------------|--------------------|
E||----------------2----------------------0---------0|--0---0---0---0-----|

VOCALIZATION 1 2X replace last 10 notes at the end
with                these
e||--------------------0-------0-----------------------0--------------|--0-------------|
B||----3-------0-----------------3-----3-------0----------------------|----------------|
G||0-------0-------2-------0-------0-------0-------0-----0-0-0-0-0-0-0|------0-0-0-0-0-|
D||--2---2-----------2---2-----------2---2---------2-----2-2-2-2-2-2-2|2-----2-2-2-2-2-|
A||3-------2-2---0---------3-3-----3-------2-2---2-2-----0-022-2-2-2-2|------0-2-2-2-2-|
E||----------------2-------------------------------0-0---0-0-0-0-0-0-0|0---0-0-0-0-0-0-|

VERSE 2

VERSE 2 EXTRA LINE                                      BRIDGE TO VOCALIZATION
e||--------------------------0-------0------------------|--------------------|
B||----3-------3-----------3-----0---------------0------|--------------------|
G||2-------02----------2---2-------------2---2---2---2-1|------------------2-|
D||--2---2---0---0---0---0---2-2---2-2-2---2---2---2---2|2---2---2---2---2---|
A||0-------2--------------------------------------------|--------------------|
E||----------------2-------------------------0---------0|--0---0---0---0-----|

VOCALIZATION 2 4X omit last 10 notes at end and mute the last note
e||----0-----------0---0---------------0-------------------------------|
B||------------0---------------0---------------0-----------------------|
G||0-------0---------------0-------0-------0-----------0-------0-0-0-0-|
D||--2---2-----------2---2-2-2---0---2---2---------2-------2-2-2-2-2-2-|
A||3-------2-2---0-----------------3-------2-2---0---------0-022-2-2-2-|
E||----------------2-------------------------------0-0---0-0-0-0-0-0-0-|


LYRICS

all the time we spent in bed 
counting miles before we set 
fall in love and fall apart 
things will end before they start 

sleeping on Lake Michigan 
factories and marching bands 
lose our clothes in summer time 
lose ourselves to lose our minds 
in the summer heat, I might