#----------------------------PLEASE NOTE-----------------------------#
# This represents the author's own work and interpretation of the    #
# song. To be used only for private study, scholarship, or research. #
#--------------------------------------------------------------------#

Artist: Sufjan Stevens
 Album: A Sun Came
  Song: A Winner Needs A Wand

[http://www.indieguitartabs.com/bands/sufjan_stevens/a_winner_needs_a_wand.html]

Tabbed by: Vincent Molin

| 	Quarter
|~ |_| 	Eigth
.	Dot

170ish BPM

Verse riff
    D#       F#     C#       C     F        A#    F#
---|---------------|--------------|--------------|----------------|
-5-|---------------|--------------|--------------|----------------|
---|---------------|--------------|--------------|----------------|
-4-|8--8--8--11-11-|6--6--6--5--5-|10-10-10-3--3-|11-11-11-X--X-X-|
---|6--6--6--9--9--|4--4--4--3--3-|8--8--8--1--1-|9--9--9--X--X-X-|
---|---------------|--------------|--------------|----------------|
    |. |  |~ |  |   |. |  |~ |  |  |. |  |~ |  |  |. |  |~ |  |_|


Break riff
  F#      D#     C#       A#    F#       D#     C#      C#
|---------------|--------------|---------------|--------------|
|---------------|--------------|---------------|--------------|
|---------------|--------------|---------------|--------------|
|11-11-11-8--8--|6--6--6--3--3-|11-11-11-8--8--|6--6--6--6--6-|
|9--9--9--6--6--|4--4--4--1--1-|9--9--9--6--6--|4--4--4--4--4-|
|---------------|--------------|---------------|--------------|

[Outro riff]
  F#             F#              D#              D#
|---------------|---------------|--------------|--------------|
|---------------|---------------|--------------|--------------|
|---------------|---------------|--------------|--------------|
|11-11-11-11-11-|11-11-11-11-11-|8--8--8--8--8-|8--8--8--8--8-| x2
|9--9--9--9--9--|9--9--9--9--9--|6--6--6--6--6-|6--6--6--6--6-|
|---------------|---------------|--------------|--------------|
  C#             A#               C#             A#             
|--------------|---------------|--------------|---------------|
|--------------|---------------|--------------|---------------|
|--------------|---------------|--------------|---------------|
|6--6--6--6--6-|3--3--3--3--3--|6--6--6--6--6-|3--3--3--3--3--| x2
|4--4--4--4--4-|1--1--1--1--1--|4--4--4--4--4-|1--1--1--1--1--|
|--------------|---------------|--------------|---------------|



[verse]
Like it's killing me
It's kidding me around

This bite, you bit on me
You put on me a gown

That fits me like a quarter door
That hits me like a sound

It's like you shut on me
Or shouldn't be around

[chorus riff]

[verse]
Like a fennel seed
A funny gene you found

I like the man-o-weeds
The man-o-wars abound

That fits me like a quarter door
That hits me like a sound

I might just win a war
A matador around

There's still nothing I can say to change
My news for you
There's still nothing you can do to exchange
My dues to you

[chorus]
Like you fit on me
To bit on me a bound

This life that's shit on me
That shouldn't be the grounds

To emulate an epicene
To elevate a sound

This life, a winner needs
A winner needs a wand

Never want to blame you
Bound you, blame me
Never want the blame you bound

Never want to blame you
Bound me, blame you
Never want the fame you found

[verse riff]

[verse]
Like it's killing me
It's kidding me around

This bite, you bit on me
You put on me a gown

[chorus]
Like you fit on me
To bit on me a bound

This life that's shit on me
That shouldn't be the grounds

To emulate an epicene
To elevate a sound

This life, a winner needs
A winner needs a wand

Never want to blame you
Bound you, blame me
Never want the blame you bound

Never want to blame you
Bound me, blame you
Never want the fame you found

[outro riff]
And where's the same
And where's the strong
And where's the guard
And where's the one who tries to make you? 

who tries to make you? 
who tries to make you? (repeat)