#----------------------------PLEASE NOTE-----------------------------#
# This represents the author's own work and interpretation of the    #
# song. To be used only for private study, scholarship, or research. #
#--------------------------------------------------------------------#

Artist: Sufjan Stevens
 Album: The Avalanche
  Song: Pittsfield

[http://www.indieguitartabs.com/bands/sufjan_stevens/20_pittsfield.html]

Tabbed by: Sometimes it hurts (sufjanfans.com)



Capo 10

   G                Em               D/F#
e|---------------------------------------------------------------
b|-----3---------3----------3---------3----------3---------3-----
g|-0---------0----------0---------0----------2---------2---------
d|---0-----0---0-----0----2-----2---2-----2----0-----0---0-----0-
a|----------------------------2---------2------------------------
E|-3-----3---3-----3----0---------0----------2-----2---2-----2---
  
    C         G          Em         D/F#
e|--------------------------------------------
b|-----3---------3----------3---------3-------
g|-0---------0----------0---------2---------2-
d|---0-----0---0-----0----2-----2---0-----0---
a|-3-----3--------------------2---------------
E|-----------3-----3----0---------2-----2---2-