#----------------------------PLEASE NOTE-----------------------------#
# This represents the author's own work and interpretation of the    #
# song. To be used only for private study, scholarship, or research. #
#--------------------------------------------------------------------#

Artist: Sufjan Stevens
 Album: Illinois
  Song: A Man Of Metropolis Steals Our Hearts

[http://www.indieguitartabs.com/bands/sufjan_stevens/12_man_of_metropolis.html]

Tabbed by: justin@indieguitartabs.com

Capo 2 

Intro:
e|------------------------
B|------------------------
G|------------------------
D|--7h9999999--7h9999999--
A|------------------------
E|------------------------

Verse:
     D
e|--------2-----------
B|----3-------3-------
G|----------------2---
D|--0---0---0---0-----
A|--------------------
E|--------------------

     G/B
e|--------------------
B|--------3-------3---
G|----0-------0-------
D|--------------------
A|--2---2---2---2-----
E|--------------------

     Cadd9
e|--------------------
B|--------3-------3---
G|----0-------0-------
D|--------------------
A|--3---3---3---3-----
E|--------------------
     
    Em7
e|--------------------
B|--------3-------3---
G|--------------------
D|----2-------2-------
A|--------------------
E|--0---0---0---0-----

Chorus:

    D5      G/B     C5      E5
e|-----------------------------------
B|-----------------------------------
G|--7-7-7-7-x-x-x-x-5-5-5-5----------
D|--7-7-7-7-5-5-5-5-5-5-5-5-2-2-2-2--
A|--5-5-5-5-5-5-5-5-3-3-3-3-2-2-2-2--
E|--x-x-x-x-7-7-7-7---------0-0-0-0--


Trouble falls in my home 
Troubled man, troubled stone 
turn a mountain of lies 
turn a card for my life 
Man of Steel, Man of Heart 
Tame our ways, if we start 
To devise something more 
Something half ways 

Only a steel man came to recover 
If he had run from gold, carry over 
We celebrate our sense of each other 
We have a lot to give one another 

I took a bus to the lake 
Saw the monument face 
Yellow tides, golden eyes 
Red and white, red and wise 
Raise the flag, summer home 
Parted hair, part unknown 
If I knew what I read 
I'll send it half ways 

Only a real man can be a lover 
If he had hands to lend us all over 
We celebrate our sense of each other 
We have a lot to give one another 

Took my bags, Illinois 
Dreamt the lake took my boy 
Man of Steel, Man of Heart 
Turn your ear to my part 
There are things you have said 
Raise the boat, and raise the dead 
If you take us away 
Still can we say: 

Only a steel man can be a lover 
If he had hands to tremble all over 
We celebrate our sense of each other 
We have a lot to give one another