#----------------------------PLEASE NOTE-----------------------------#
# This represents the author's own work and interpretation of the    #
# song. To be used only for private study, scholarship, or research. #
#--------------------------------------------------------------------#

Artist: Sufjan Stevens
 Album: Seven Swans
  Song: We Won't Need Legs to Stand

[http://www.indieguitartabs.com/bands/sufjan_stevens/08_legs_to_stand.html]

Tabbed by: Hunter MacDermut

Standard tuning.

e||-------------------------|-------------------------|-------------------------| 
B||-----3-----3-----3-----3-|-----3-----3-----3-----3-|-----1-----1-----1-----1-| 
G||.--3-----3-----3-----3---|---2-----2-----2-----2---|---2-----2-----2-----2---| 
D||.------0-----------0-----|-------------------------|-------------------------| 
A||-------------------------|-------0-----------0-----|-0-----3-----0-----3-----| 
E||-3-----------3-----------|-2-----------2-----------|-------------------------| 
                                                                             
      |[1] No lyrics.                                                               
      |[2]           "So            faithful                              so        
      |[3]           "When we are   dead                                  we 
all 
have    |
                                                                             
      |
                                                      (1st ending.)          
      | Intro.
e|-------------------------|-------------------------|-------------------------|| 
B|-----0-----0-----0-----0-|-----1-----1-----1-----1-|-----0-----0-------------|| 
G|---0-----0-----0-----0---|---2-----2-----2-----2---|---1-----1--------------.|| 
D|-------------------------|-------------------------|------------------------.|| 
A|-------2-----------2-----|-------3-----------3-----|-------2-----------------|| 
E|-3-----------3-----------|-1-----------1-----------|-0-----------0-----------|| 
                                                                             
      |[1] No lyrics.                                                               
      |[2] few                                  so                                  
      |[3] wings                                we won't need                       
      /

(2nd and 3rd endings.)
e|-------------------------|-------------------------|-------------------------|
B|-----0-----0-----0-----0-|-----2-----2-----2-----2-|-----2-----2-----2-----2-|
G|---1-----1-----1-----1---|---2-----2-----2-----2---|---2-----2-----2-----2---|
D|-------------------------|-------------------------|-------------------------|
A|-------2-----------2-----|-0-----0-----0-----0-----|-0-----0-----0-----0-----|
E|-0-----------0-----------|-------------------------|-------------------------|

[2] pardon             and   done                                  when 
we 
re-
[3] legs               to    stand                                 when 
we 
re-

e|-------------------------|-------------------------|-------------------------|
B|-----3-----3-----3-----3-|-----3-----3-----3-----3-|-----1-----1-----1-----1-|
G|---2-----2-----2-----2---|---2-----2-----2-----2---|---2-----2-----2-----2---|
D|-------------------------|-------------------------|-------------------------|
A|-------0-----------0-----|-------0-----------0-----|-------3-----------3-----|
E|-2-----------2-----------|-2-----------2-----------|-1-----------1-----------|

[2] ceive                                we give a     change
[3] ceive                                to see a      change (3rd time 
go 
to [*].)

e|-------------------------|-------------------------|-------------------------|
B|-----0-----0-----0-----0-|-----2-----2-----2-----2-|-----1-----1-----1-----1-|
G|---1-----1-----1-----1---|---2-----2-----2-----2---|---2-----2-----2-----2---|
D|-------------------------|-------------------------|-------------------------|
A|-------2-----------2-----|-0-----0-----0-----0-----|-0-----0-----0-----0-----|
E|-0-----------0-----------|-------------------------|-------------------------|

[2] at                       last"
                                                                            
(Back to top.)
e|-------------------------|-------------------------|-------------------------||
B|-----0-----0-----0-----0-|-----1-----1-----1-----1-|-----0-----0-------------||
G|---0-----0-----0-----0---|---2-----2-----2-----2---|---1-----1--------------.||
D|-------------------------|-------------------------|------------------------.||
A|-------2-----------2-----|-------3-----------3-----|-------2-----------------||
E|-3-----------3-----------|-1-----------1-----------|-0-----------0-----------||



[*]
e|-------------------------|-------------------------|-------------------------|
B|-----0-----0-------------|-----2-----2-----2-----2-|-----1-----1-----1-----1-|
G|---1-----1---------------|---2-----2-----2-----2---|---2-----2-----2-----2---|
D|-------------------------|-------------------------|-------------------------|
A|-------2-----------------|-0-----------0-----------|-0-----------0-----------|
E|-0-----------0-----------|-------0-----------0-----|-------0-----------0-----|

[3] at                       last                               ooh, 
oh..." 
etc.

e|-------------------------|-------------------------|-------------------------|
B|-----0-----0-----0-----0-|-----1-----1-----1-----1-|-----0-----0-----0-----0-|
G|---0-----0-----0-----0---|---2-----2-----2-----2---|---1-----1-----1-----1---|
D|-------0-----------0-----|-------------------------|-------------------------|
A|-------------------------|-------3-----------3-----|-------2-----------2-----|
E|-3-----------3-----------|-1-----------1-----------|-0-----------0-----------|

(Play the following with "ooh, oh..."'s, then end on an A chord.)

e||-------------------------|-------------------------|-------------------------|
B||-----3-----3-----3-----3-|-----3-----3-----3-----3-|-----1-----1-----1-----1-|
G||.--3-----3-----3-----3---|---2-----2-----2-----2---|---2-----2-----2-----2---|
D||.------0-----------0-----|-------------------------|-------------------------|
A||-------------------------|-------0-----------0-----|-0-----3-----0-----3-----|
E||-3-----------3-----------|-2-----------2-----------|-------------------------|

                                                       (rit.)
e|-------------------------|-------------------------|-------------------------||
B|-----0-----0-----0-----0-|-----1-----1-----1-----1-|-----0-----0-----0-----0-||
G|---0-----0-----0-----0---|---2-----2-----2-----2---|---1-----1-----1-----1--.||
D|-------------------------|-------------------------|------------------------.||
A|-------2-----------2-----|-------3-----------3-----|-------2-----------2-----||
E|-3-----------3-----------|-1-----------1-----------|-0-----------0-----------||