#----------------------------PLEASE NOTE-----------------------------#
# This represents the author's own work and interpretation of the    #
# song. To be used only for private study, scholarship, or research. #
#--------------------------------------------------------------------#

Artist: Sufjan Stevens
 Album: Seven Swans
  Song: Size Too Small

[http://www.indieguitartabs.com/bands/sufjan_stevens/07_size_too_small.html]



Tab author: "visa" at http://www.sufjanfans.com

Standard tuning - Capo 5th fret

Verse:

e|---------0-0-0-0-0-----------------|
B|---------3-3-3-3-3-----------------|
G|---------0-0-0-0-0-----------------|
D|---------2-2-2-2-2-------0h2-2p0-0-|
A|-------0-0-0-0-0-0-----------------|
E|--0-3----x-x-x-x-x-0h3-3-----------|

e|----x-x-x-x-x-----------------|---0-0-0-0-0-|---0-0-0-0-0-|
B|----3-3-3-3-3-----------------|---1-1-1-1-1-|---0-0-0-0-0-|
G|----0-0-0-0-0-----------------|---0-0-0-0-0-|---0-0-0-0-0-|
D|----0-0-0-0-0-------0h2-2p0-0-|---2-2-2-2-2-|---2-2-2-2-2-|
A|----x-x-x-x-x-----------------|---2-2-2-2-2-|---2-2-2-2-2-|
E|--1-x-x-x-x-x-0h1-1-----------|-0-0-0-0-0-0-|-0-0-0-0-0-0-|

e|---0-0-0-0-0-|-0-0-0-|
B|---1-1-1-1-1-|-0-0-0-|
G|---0-0-0-0-0-|-0-0-0-|
D|---2-2-2-2-2-|-2-2-2-|
A|---2-2-2-2-2-|-2-2-2-|
E|-0-0-0-0-0-0-|-0-0-0-|

before the chorus:
e|---0-0-0-0-0-|-0-0-0-0-0-0-0-|
B|---1-1-1-1-1-|-0-0-0-0-0-0-0-|
G|---2-2-2-2-2-|-2-2-2-2-2-2-2-|
D|---3-3-3-3-3-|-3-3-3-3-3-3-3-|
A|---3-3-3-3-3-|-3-3-3-3-3-3-3-|
E|-1-1-1-1-1-1-|-1-1-1-1-1-1-1-|


Chorus:

e|---x-x-x-x-x-x-x-x-x-x-x-x-|---0-0-0-0-0-|-0-0-0-0-0-0-0-|---x-x-x-x-x-x-x-x-x-|
B|---3-3-3-3-3-3-3-3-3-3-3-3-|---1-1-1-1-1-|-0-1-1-1-1-1-1-|---1-1-1-1-1-1-1-1-1-|
G|---0-0-0-0-0-0-0-0-0-0-0-0-|---2-2-2-2-2-|-2-2-2-2-2-2-2-|---0-0-0-0-0-0-0-0-0-|
D|---0-0-0-0-0-0-0-0-0-0-0-0-|---3-3-3-3-3-|-3-3-3-3-3-3-3-|---0-0-0-0-0-0-0-0-0-|
A|---2-2-2-2-2-2-2-2-2-2-2-2-|---3-3-3-3-3-|-3-3-3-3-3-3-3-|---2-2-2-2-2-2-2-2-2-|
E|-3-3-3-3-3-3-3-3-3-3-3-3-3-|-1-1-1-1-1-1-|-1-1-1-1-1-1-1-|-3-3-3-3-3-3-3-3-3-3-|

I was the best man in a size too small. 
You were my best friend, going at it all. 
And what if I put off my inheritance? 
Where is the best man? 
All arise us all in peace. 
I still know you. 
And I still like you, the best man. 
And I still owe you. 

Everything rises, going at it all. 
All the surprises in a size too small. 
And what if I told you 
I was still in love with this? 
Would you surprise us 
in a size for all of me? 
I still know you. 
And I still like you, the best man. 
I still know you, the best man. 
I still owe you