#----------------------------PLEASE NOTE-----------------------------#
# This represents the author's own work and interpretation of the    #
# song. To be used only for private study, scholarship, or research. #
#--------------------------------------------------------------------#

Artist: Sufjan Stevens
 Album: The Avalanche
  Song: The Henney Buggy Band

[http://www.indieguitartabs.com/bands/sufjan_stevens/06_henney_buggy_band.html]

Tabbed by: Sometimes it hurts (sufjanfans.com)



Verse Chords: Bm E A D

e|-----------------------------------------------------|
b|-----------------------------------------------------|
g|-------4-6-7-6s2-6p4------------4-6-7-6s2-6p4--------|
d|-4-6-7---------------7-4--4-6-7---------------7-4----|
a|-----------------------------------------------------|
E|-----------------------------------------------------|

Band In
e|-----------------------------------------------------|
b|-----------------------------------------------------|
g|-------4-6-7-6s2-6p4------------4-6-7-6s2-6p4--------|
d|-4-6-7---------------7-4--4-6-7---------------7-4----|
a|-----------------------------------------------------|
E|-----------------------------------------------------|

Keyboard Chords: Bm E A D X2

e|--------------------------------------|
b|--------------------------------------|
g|-------4-6-7-6s2----------4-6-7-6s2---|
d|-4-6-7-----------4--4-6-7-----------4-|
a|--------------------------------------|
E|--------------------------------------|

e|--------------------------------------------|
b|--------------------------------------------|
g|-7-6-4-7-6-4-2-6--7-6-4-7-6-4-----------4---|
d|------------------------------7-6-4-6-7-----|
a|--------------------------------------------|
E|--------------------------------------------|

e|-----------------------------------------------------|
b|-----------------------------------------------------|
g|-------4-6-7-6s2-6p4------------4-6-7-6s2-6p4--------|
d|-4-6-7---------------7-4--4-6-7---------------7-4----|
a|-----------------------------------------------------|
E|-----------------------------------------------------|

e|-----------------------------------------------------|
b|-----------------------------------------------------|
g|-------4-6-7-6s2-6p4------------4-6-7---4-6-7--------|
d|-4-6-7---------------7-4--4-6-7-------7--------------|
a|-----------------------------------------------------|
E|-----------------------------------------------------|

e|-----------------------------------------------------|
b|-----------------------------------------------------|
g|-----4-6-------4--------------------4-6-7------------|
d|-5-7-----4-6-7-----4-6-7------4-6-7------------------|
a|-----------------7--------5-7------------------------|
E|-----------------------------------------------------|

e|---------------4-------------------------------------|
b|-----------5-7---------------------------------------|
g|-----4-6-7---------4-6-7------4-6-------4------------|
d|-6-7-------------7--------5-7-----4-6-7-----4-6-7----|
a|------------------------------------------7-------5--|
E|-----------------------------------------------------|


e|---------------------------------------------|
b|---------------------------------------------|
g|-7-6-4-7-6-4-2-6---7-6-4-7-6-4-----------4---|
d|-------------------------------7-6-4-6-7-----|
a|---------------------------------------------|
E|---------------------------------------------|

e|-----------------------------------------------------|
b|-----------------------------------------------------|
g|-------4-6-7-6s2-6p4------------4-6-7-6s2-6p4--------|
d|-4-6-7---------------7-4--4-6-7---------------7-4----|
a|-----------------------------------------------------|
E|-----------------------------------------------------|

Keyboard Chords: Bm E A D X2

e|-----------------------------------------------------|
b|-----------------------------------------------------|
g|-------4-6-7-6s2-6p4------------4-6-7-6s2-6p4--------|
d|-4-6-7---------------7-4--4-6-7---------------7-4----|
a|-----------------------------------------------------|
E|-----------------------------------------------------|

e|---------------------------------------------|
b|---------------------------------------------|
g|-7-6-4-7-6-4-2-6---7-6-4-7-6-4-----------4---|
d|-------------------------------7-6-4-6-7-----|
a|---------------------------------------------|
E|---------------------------------------------|

e|-----------------------------------------------------|
b|-----------------------------------------------------|
g|-------4-6-7-6s2-6p4------------4-6-7---4-6-7--------|
d|-4-6-7---------------7-4--4-6-7-------7--------------|
a|-----------------------------------------------------|
E|-----------------------------------------------------|

e|-----------------------------------------------------|
b|-----------------------------------------------------|
g|-----4-6-------4--------------------4-6-7------------|
d|-5-7-----4-6-7-----4-6-7------4-6-7------------------|
a|-----------------7--------5-7------------------------|
E|-----------------------------------------------------|

e|---------------4-------------------------------------|
b|-----------5-7---------------------------------------|
g|-----4-6-7---------4-6-7------4-6-------4------------|
d|-6-7-------------7--------5-7-----4-6-7-----4-6-7----|
a|------------------------------------------7----------|
E|-----------------------------------------------------|

e|--------------------------------4---|
b|----------------------------5-7-----|
g|-----------4-6-7------4-6-7---------|
d|-----4-6-7--------6-7---------------|
a|-5-7--------------------------------|
E|------------------------------------|

e|---------------------------------------------|
b|---------------------------------------------|
g|---4-6-7-----4-6--------4--------------------|
d|-7-------5-7------4-6-7-----4-6-7------------|
a|--------------------------7-------5----------|
E|---------------------------------------------|

e|---------------------------------------------|
b|---------------------------------------------|
g|-7-6-4-7-6-4-2-6---7-6-4-7-6-4-----------4---|
d|-------------------------------7-6-4-6-7-----|
a|---------------------------------------------|
E|---------------------------------------------|

e|-----------------------------------------------------|
b|-----------------------------------------------------|
g|-------4-6-7-6s2-6p4------------4-6-7-6s2-6p4--------|
d|-4-6-7---------------7-4--4-6-7---------------7-4----|
a|-----------------------------------------------------|
E|-----------------------------------------------------|

e|-----------------------------------------------------|
b|-----------------------------------------------------|
g|-------4-6-7-6s2-6p4------------4-6-7-6s2-6p4--------|
d|-4-6-7---------------7-4--4-6-7---------------7-4-7--|
a|-----------------------------------------------------|
E|-----------------------------------------------------|