#----------------------------PLEASE NOTE-----------------------------#
# This represents the author's own work and interpretation of the    #
# song. To be used only for private study, scholarship, or research. #
#--------------------------------------------------------------------#

Artist: Sufjan Stevens
 Album: The Avalanche
  Song: Chicago (Acoustic Version)

[http://www.indieguitartabs.com/bands/sufjan_stevens/05_chicago_acoustic.html]

Tabbed by: Sometimes it hurts (sufjanfans.com)



Capo 9

Main Riff
    D                Am      (Em)      C                 G
e|--------2---3---------------------0-------------------------------------|
B|----3-----------3--------1-----------------1--------0--------0--------0-|
G|------2-------2------2--------2--------0--------0--------0--------0-----|
D|--0-------0------------2--------2--------2--------2--------0--------0---|
A|-------------------0--------0--------3--------3-----------------2-------|
E|-------------------------------------------------------3----------------|

Chorus Variation:
    D                Am      (Em)      C                (Em)      G
e|--------2-------0-----------------0--------------------------------------|
B|----3-------3------------1-----------------1--------0--------0--------0--|
G|------2-------2------2--------2--------0--------0--------0--------0------|
D|--0-------0------------2--------2--------2--------2--------2--------0----|
A|-------------------0--------0--------3--------3--------2-----------------|
E|----------------------------------------------------------------3--------|