#----------------------------PLEASE NOTE-----------------------------#
# This represents the author's own work and interpretation of the    #
# song. To be used only for private study, scholarship, or research. #
#--------------------------------------------------------------------#

Artist: Sufjan Stevens
 Album: Seven Swans
  Song: Abraham

[http://www.indieguitartabs.com/bands/sufjan_stevens/05_abraham.html]

Tabbed by: Schmootz at http://www.sufjanfans.com

eb:---------------------
Bb:---1-----------------
Gb:-2-------0-------0---
Db:-----0-2-------0----- x3
Ab:-----------0-2-----2-
Eb:---------------------

eb|---------------
Bb|-------------1-
Gb|-----0-----0-2-
Db|---2-----0---2-
Ab|-3-----2-----0-
Eb|---------------

Abraham, worth a righteous one.
Take up on the wood,
put it on your son.
Lake or lamb.
There is none to harm.
When the angel came,
you had raised your arm.

Abraham, put off on your son.
Take instead the ram
until Jesus comes