Death With Dignity Tab (Version 2)

More Sufjan Stevens Tabs

Artist: Sufjan Stevens
 Album: Carrie & Lowell
  Song: Death With Dignity (Version 2)

AUTHOR:  Lora Tarn

TAB:  Capo 9

Intro/Verse

     G                                                 C
e----------------------------------------------------------------
A----3-------------3-----------3-----------3-----------5---------
G-------0-----0-------0-----0-----0-----0-----0-----0-----0----0-
D----------0-------------0-----------0-----------0-----------0---
B----2-------------2-----------2-----------2-----------3---------
E----------------------------------------------------------------

e--------------------------------------
A--5-----------5-----------5-----------
G-----0-----0-----0-----0-----0-----0--
D--------0-----------0-----------0-----
B--3-----------3-----------3-----------
E--------------------------------------
     D                                                 C
e----2-----------2-----------2-----------2-----------------------
A-------3-----3-----3-----3-----3-----3-----3-----3----5---------
G----------0-----------0-----------0-----------0----------0----0-
D----0-----------0-----------0-----------0-------------------0---
B------------------------------------------------------3---------
E----------------------------------------------------------------
              G
e----------------------------------------
A--5-----------3-----------3-------------
G-----0-----0-----0-----0-----0-----0----
D--------0-----------0-----------0-------
B--3-----------2-----------2-------------
E----------------------------------------

     C                                               Bm                      G
e----------------------------------------------------------------
A----5-----------5-----------5-----------5-----------3----------
G-------0-----0-----0-----0-----0-----0-----0-----0-----5-----5--
D----------0-----------0-----------0-----------0-----------2-----
B----3-----------3-----------3-----------3-----------0----------
E----------------------------------------------------------------

             G
e------------------------------------
A-3-----------3-----------3-----------
G---5-----5-----0-----0-----0-----0--
D------2-----------0-----------0-----
B-0-----------2-----------2-----------
E------------------------------------
     C
e----------------------------------------------------
A----5-----------5-----------5-----------5-----------
G-------0-----0-----0-----0-----0-----0-----0-----0--
D----------0-----------0-----------0-----------0-----
B----3-----------3-----------3-----------3-----------
E----------------------------------------------------

  G                         C
Spirit of my silence I can hear you
                      D
But Iím afraid to be near you
              C    G        C
And I donít know where to begin
              Bm   G        C
And I donít know where to begin

  G                                C
Somewhere in the desert thereís a forest
               D
And an acre before us
              C    G        C
But I donít know where to begin
              Bm   G        C
But I donít know where to begin
                                 D
Again Iíve lost my strength completely,
       C
oh be near me,
 G          C                         Bm       G      C
Tired old mare with the wind in your hair


  G                          C
Amethyst and flowers on the table,
                 D
is it real or a fable?
           C       G           C
Well I suppose a friend is a friend
            Bm   G             C
And we all know how this will end


  G                                 C
Chimney swift that finds me, be my keeper
                   D
Silhouette of the cedar
              C        G            C
What is that song you sing for the dead?
              Bm       G            C
What is that song you sing for the dead?
                                D
I see the signal searchlight strike me
        C     G      C
in the window of my room
                       Bm       G      C
Well I got nothing to prove
                       Bm       G      C
Well I got nothing to prove

G C D C G C Bm G C

  G                           C
I forgive you, mother, I can hear you
                  D
And I long to be near you
           C    G           C
But every road leads to an end
            Bm   G          C
Yes every road leads to an end
                          D
Your apparition passes through me
        C
in the willows:
 G        C                          Bm       G      C
Five red hensóyouíll never see us again
                     Bm       G      C
Youíll never see us again

#----------------------------PLEASE NOTE-----------------------------#
# This represents the author's own work and interpretation of the    #
# song. To be used only for private study, scholarship, or research. #
#--------------------------------------------------------------------#

blog comments powered by Disqus