A Good Man is Hard to Find (Ver 2) Tab

More Sufjan Stevens Tabs

Artist: Sufjan Stevens
 Album: Seven Swans
  Song: A Good Man is Hard to Find (Ver 2)

Tabbed by: Michael

Capo 4
Standard Tuning

Chords Used: |C#/Asus2| |C/Asus2| |Em| |D2/F#| |C/A7sus4| |G6| |Asus2| |C|
 
C#/Asus2 : x42200
C/Asus2  : x32200
Em       : 022000
D2/F#    : x2x020
C/A7sus4 : x3x030
G6       : 320030
Asus2    : x02200
C        : x32010



Intro:
|C#/Asus2| |C/Asus2| |Em|   |D2/F#| 
|C/A7sus4|   |G6|   |D2/F#| |D2/F#| x2


Verse:

C#/Asus2   C/Asus2    Em
Once       in     the backyard 

D2/F#             C/A7sus4
She was once like me 

G6          D2/F#
She was once like me

C#/Asus2   C/Asus2    Em 
Twice      when     I killed them

D2/F#             C/A7sus4
They were once at peace 

G6            D2/F#
They were once like me



Verse:

C#/Asus2    C/Asus2       Em
Hold        to      your gun, man 

D2/F#                C/A7sus4
And put off all your peace

G6        D2/F#
Put off all the beast

C#/Asus2     C/Asus2      Em
Paid a full of these,   I wait for it 

    D2/F#               C/A7sus4
But someone's once like me 

G6          D2/F#
She was once like me




Chorus:

|Asus2| |Em| |D2/F#| |C/A7sus4| 
|Asus2| |Em| |D2/F#| |C|x4

	Electric Riff
|-----------------0h2-|-3---2-------------|
|-------------0h3-----|---------3-0---0h3-|
|---------0h2---------|-------------2-----|
|-----0h2-------------|-------------------|
|-0h2-----------------|-------------------|
|---------------------|-------------------|

|-----------------0h2-|-3---/5---/8-7-----|
|-------------0h3-----|-------------------|
|---------0h2---------|-------------------|
|-----0h2-------------|-------------------|
|-0h2-----------------|-------------------|
|---------------------|-------------------|x4

After 4th time, play

|---5--3--2h3-0-----|
|-------------------|
|-------------------|
|-------------------|
|-------------------|
|-------------------|






Verse:

    C#/Asus2    C/Asus2    Em
And I           once   was better

  D2/F#          C/A7sus4
I put off all my grief 

  G6       D2/F#
I put off all my grief 

    C#/Asus2    C/Asus2    Em
And so   I go to hell,   I wait for it

    D2/F#             C/A7sus4
But someone's left me creased 

G6          D2/F#
Someone’s left me creased



Chorus:

|Asus2| |Em| |D2/F#| |C/A7sus4| 
|Asus2| |Em| |D2/F#| |C|x4

	Electric Riff
|-----------------0h2-|-3---2-------------|
|-------------0h3-----|---------3-0---0h3-|
|---------0h2---------|-------------2-----|
|-----0h2-------------|-------------------|
|-0h2-----------------|-------------------|
|---------------------|-------------------|

|-----------------0h2-|-3---/5---/8-7-----|
|-------------0h3-----|-------------------|
|---------0h2---------|-------------------|
|-----0h2-------------|-------------------|
|-0h2-----------------|-------------------|
|---------------------|-------------------|x4



End on:

|Asus2| |Em|	



#----------------------------PLEASE NOTE-----------------------------#
# This represents the author's own work and interpretation of the    #
# song. To be used only for private study, scholarship, or research. #
#--------------------------------------------------------------------#

blog comments powered by Disqus