A Good Man Is Hard To Find Tab

More Sufjan Stevens Tabs

Artist: Sufjan Stevens
 Album: Seven Swans
  Song: A Good Man Is Hard To Find

Lead each chord with a strike of the bass note.

Capo 4

Verse: 
C#/A  C/A   Em G
C G D/F#

   C#/A      C/A       Em        D/F#
e|-----------------------------------------
B|-0---------0-------------------3---------
G|-2---------2---------0---------2-0h2-----
D|-2-0h2-----2-0h2-----2---------0---------
A|-4---------3---------2-0h2-----x---------
E|---------------------0---------2---------

   C         G        D/F#        
e|-----------------------------------------
B|-0---------0---------3-------3-----------
G|-0---------0---------2--0h2--2--0h2------
D|-2-0h2-----0---------0-------0-----------
A|-3---------2-0h2-----x-------x-----------
E|-----------3---------2-------2-----------

Chorus:
Asus2 Em D#/F  C

e|-0---0---0-------
B|-0---0---3---1---
G|-2---0---2---0---
D|-2---2---0---2---
A|-0---2---x---3---
E|-----0---2-------


Verse:
C#/A  C/A   Em
Once in the backyard, 
D/F#             C
she was once like me, 
G                D/F#
she was once like me.
C#/A  C/A    Em 
Twice when I killed them, 
D/F#              C
they were once at peace, 
G                  D/F#
they were once like me. 

Verse:
C#/A C/A     Em
Hold to your gun, man, 
D/F#                 C
and put off all your peace, 
G              D/F#
put off all the beast. 
C#/A           C/A      Em
Paid a full of these, I wait for it, 
    D/F#               C
but someone's once like me. 
G                D/F#
She was once like me. 

Chorus:
bah-bah-bah x8
Asus2 Em D/F#  C

Verse:
    C#/A C/A     Em
And I once was better. 
  D/F#           C
I put off all my grief. 
  G             D/F#
I put off all my grief. 
    C#/A       C/A      Em
And so I go to hell, I wait for it, 
    D/F#              C
but someone's left me creased. 
    G                D/F#
And she was once like me.

Chorus


#----------------------------PLEASE NOTE-----------------------------#
# This represents the author's own work and interpretation of the    #
# song. To be used only for private study, scholarship, or research. #
#--------------------------------------------------------------------#

blog comments powered by Disqus