Adlai Stevenson Tab

More Sufjan Stevens Tabs

Artist: Sufjan Stevens
 Album: The Avalanche
  Song: Adlai Stevenson

Tabbed by: gunshotlover / sometimes it hurts / dyingwereply (sufjanfans.com)



Capo 3
C Am G C C/B

Intro Riff
|-------0-------------------------------0-----------------------------|
|-------1-3-1-----1-0-----0-1-0-1-3-1---1-3-1-----1-0-----0-1-0-1-3-1-|
|---0-----4-2-0-0-0-0-0-0-0-0-0-0-0-0-0---4-2-0-0-0-0-0-0-0-0-0-0-0-0-|
|-----2-------2-2-----0-0-------------2-------2-2-----0-0-------------|
|---------------------------------------------------------------------|
|-0-------------------------------------------------------------------|

Main Riff
 
  C                 Am                G                 C       C/B
|-----------0----------------0----------------0----------------------|
|-------1-------1--------1-------1--------0-------0--------1-------1-|
|---0----------------0----------------0----------------0-------0-----|
|-----2-------2--------2-------2--------0-------0--------2-------0---|
|------------------0-------0-------------------------3-------2-------|
|-0-------0-------------------------3-------3------------------------|



#----------------------------PLEASE NOTE-----------------------------#
# This represents the author's own work and interpretation of the    #
# song. To be used only for private study, scholarship, or research. #
#--------------------------------------------------------------------#

blog comments powered by Disqus