The Dress Looks Nice On You Tab

More Sufjan Stevens Tabs

Artist: Sufjan Stevens
 Album: Seven Swans
  Song: The Dress Looks Nice On You



Tab author: Halcyon at http://www.sufjanfans.com

    Moderately Q=125
    $                                                            To Coda
    N.C.
   4/4


Intro/Verse

    Gtr I
||------------------|-----------------|-----------------|-----------------|
||o-----------------|-----3-----3-----|-----------------|-----3-----3-----|
||------0-------0---|-----------------|-----0-------0---|-----------------|
||----2---0-0h2-----|---2-----2-----0-|---2---0-0h2-----|---2-----2-----0-|
||o-0-------------0-|-3-----2---------|-0-------------0-|-3-----2---------|
||------------------|-------------3---|-----------------|-------------3---|


|-----------------|-----------------|-----------------|------------------||
|-----------------|-----3-----3-----|-----------------|-----3-----3-----o||
|-----0-------0---|-----------------|-----0-------0---|------------------||
|---2---0-0h2-----|---2-----2-----0-|---2---0-0h2-----|---2-----2-----0--||
|-0-------------0-|-3-----2---------|-0-------------0-|-3-----2---------o||
|-----------------|-------------3---|-----------------|-------------0----||


   Interlude
    Gtr I
||------------------|-0-----0---------|-----------------|-0-----0-----------||
||o-----------------|---3-----3-------|-----------------|---3-----3--------o||
||------0-------0---|-----0-----0---0-|-----0-------0---|-----0-----0---0---||
||----2---0-0h2-----|-----------------|---2---0-0h2-----|-------------------||
||o-0-------------0-|-----------------|-0-------------0-|------------------o||
||------------------|-------------3---|-----------------|-------------3-----||
|
|   Gtr II
||------------------|-----------------|-----------------|-------------------||
||o-----3-----------|-----------------|-----3-----------|------------------o||
||--------------0---|---0-----0-------|-------------0---|---0-----0---------||
||----2---0-0h2-----|-----0-----0---0-|---2---0-0h2-----|-----0-----0---0---||
||o-0-------------0-|-3-----2-----2---|-0-------------0-|-3-----2-----2----o||
||----------------0-|-3-----0-----3---|---------------0-|-3-----0-----3-----||


Verse
|-----------------|-----------------|-----------------|-----------------|
|-----------------|-----3-----3-----|-----------------|-----3-----3-----|
|-----0-------0---|-----------------|-----0-------0---|-----------------|
|---2---0-0h2-----|---2-----2-----0-|---2---0-0h2-----|---2-----2-----0-|
|-0-------------0-|-3-----2---------|-0-------------0-|-3-----2---------|
|-----------------|-------------3---|-----------------|-------------3---|
|
|-----------------|-----------------|-----------------|-----------------|
|-----3-----------|-----------------|-----3-----------|-----------------|
|-------------0---|---0-----0-------|-------------0---|---0-----0-------|
|---2---0-0h2-----|-----0-----0---0-|---2---0-0h2-----|-----0-----0---0-|
|-0-------------0-|-3-----2-----2---|-0-------------0-|-3-----2-----2---|
|---------------0-|-3-----0-----3---|---------------0-|-3-----0-----3---|


|-----------------|-----------------|-----------------|----------------||
|-----------------|-----3-----3-----|-----------------|-----3-----3----||
|-----0-------0---|-----------------|-----0-------0---|----------------||
|---2---0-0h2-----|---2-----2-----0-|---2---0-0h2-----|---2-----2------||
|-0-------------0-|-3-----2---------|-0-------------0-|-3-----2--------||
|-----------------|-------------3---|-----------------|-------------3--||
|
|-----------------|-----------------|-----------------|----------------||
|-----3-----------|-----------------|-----3-----------|----------------||
|-------------0---|---0-----0-------|-------------0---|---0-----0------||
|---2---0-0h2-----|-----0-----0---0-|---2---0-0h2-----|-----0-----0----||
|-0-------------0-|-3-----2-----2---|-0-------------0-|-3-----2-----2--||
|---------------0-|-3-----0-----3---|---------------0-|-3-----0-----3--||


   Bridge
||----------------------|-0-----0---------|
||o---------------------|---3-----3-------|
||----------0-------0---|-----0-----0---0-|
||------0h2---0-0h2-----|-----------------|
||o-0h2---------------0-|-3-----2---------|
||----------------------|-------------3---|
|
||----------------------|-----------------|
||o---------3-----------|-----------------|
||------------------0---|---0-----0-------|
||------0h2---0-0h2-----|-----0-----0---0-|
||o-0h2---------------0-|-3-----2-----2---|
||--------------------0-|-3-----0-----0---|
|
|   Gtr III
||----------------------|-----------------|
||o---------0-----------|-------------3---|
||------0h2---------0---|-0-0---0-0-------|
||o-0h2-------0-0h2---2-|-2---2-0---0-----|
||----------------------|-----------------|


                                          3x
|---------------------|-0-----0-----------||
|---------------------|---3-----3--------o||
|---------0-------0---|-----0-----0---0---||
|-----0h2---0-0h2-----|-------------------||
|-0h2---------------0-|-3-----2----------o||
|---------------------|-------------3-----||
|
|                                         3x
|---------------------|-------------------||
|---------3-----------|------------------o||
|-----------------0---|---0-----0---------||
|-----0h2---0-0h2-----|-----0-----0---0---||
|-0h2---------------0-|-3-----2-----2----o||
|-------------------0-|-3-----0-----0-----||
|
|                                         3x
|---------------------|-------------------||
|---------0-----------|-------------3----o||
|-----0h2---------0---|-0-0---0-0---------||
|-0h2-------0-0h2---2-|-2---2-0---0------o||
|---------------------|-------------------||


|---------------------|-0-----0---------|
|---------------------|---3-----3-------|
|---------0-------0---|-----0-----0---0-|
|-----0h2---0-0h2-----|-----------------|
|-0h2---------------0-|-3-----2---------|
|---------------------|-------------3---|
|
|---------------------|-----------------|
|---------3-----------|-----------------|
|-----------------0---|---0-----0-------|
|-----0h2---0-0h2-----|-----0-----0---0-|
|-0h2---------------0-|-3-----2-----2---|
|-------------------0-|-3-----0-----0---|
|
|---------------------|-----------------|
|---------0-----------|-------------3---|
|-----0h2---------0---|-0-0---0-0-------|
|-0h2-------0-0h2---2-|-2---2-0---0-----|
|---------------------|-----------------|


|---------------------|-0-----0---------||
|---------------------|---3-----3-------||
|---------0-------0---|-----0-----0---0-||
|-----0h2---0-0h2-----|-----------------||
|-0h2---------------0-|-3-----2---------||
|---------------------|-------------3---||
|
|---------------------|-----------------||
|---------3-----------|-----------------||
|-----------------0---|---0-------------||
|-----0h2---0-0h2-----|-----0-----------||
|-0h2---------------0-|-3-----2---------||
|-------------------0-|-3-----0---------||
|
|---------------------|-----------------||
|---------0-----------|-----------------||
|-----0h2---------0---|-0-0---0---------||
|-0h2-------0-0h2---2-|-2---2-0---------||
|---------------------|-----------------||


Interlude
  Gtr IV
|----------------|----------------|----------------|----------------|
|-3---3---3--3---|-2---2---2--2---|-3---3---3--3---|-2---2---2--2---|
|-3---3---3--3---|-2---2---2--2---|-3---3---3--3---|-2---2---2--2---|
|----------------|----------------|----------------|----------------|
|----------------|----------------|----------------|----------------|
|----------------|----------------|----------------|----------------|
|
| Gtr I
|----------------|----------------|----------------|----------------|
|---3--------3---|---3--------3---|---3--------3---|---3--------3---|
|-----0--------0-|-----0--------0-|-----0--------0-|-----0--------0-|
|-0-----0h3------|-0-----0h2------|-0-----0h3------|-0-----0h2------|
|----------------|----------------|----------------|----------------|
|----------------|----------------|----------------|----------------|
|
| Gtr V
|----------------|----------------|----------------|----------------|
|-----3-6----5-3-|-----2-5----3-2-|-----3-6----5-3-|-----2-5----3-2-|
|----------------|----------------|----------------|----------------|
|----------------|----------------|----------------|----------------|
|----------------|----------------|----------------|----------------|
|----------------|----------------|----------------|----------------|


|-----------------|-----------------|
|-1---1---1---1---|-2---2---2---2---|
|-2---2---2---2---|-2---2---2---2---|
|-3---3---3---3---|-2---2---2---2---|
|-----------------|-----------------|
|-----------------|-----------------|
|
|-----------------|-----------------|
|---3---------3---|---3---------3---|
|-----0-----0---0-|-----0-----0---0-|
|-3-----0h3-------|-2-----0h2-------|
|-----------------|-----------------|
|-----------------|-----------------|
|
|-----------------|-----------------|
|-----------------|-----------------|
|-----2-5-----4-2-|-----2-6-----4-2-|
|-----------------|-----------------|
|-----------------|-----------------|
|-----------------|-----------------|


                                   D.S. al Coda
|-----------------|-----------------|------------||
|-1---1---1---1---|-2---2---2---2---|-2--2--2----||
|-2---2---2---2---|-2---2---2---2---|-2--2--2----||
|-3---3---3---3---|-2---2---2---2---|-2--2--2----||
|-----------------|-----------------|------------||
|-----------------|-----------------|------------||
|
|-----------------|-----------------|------------||
|---3---------3---|---3---------3---|------------||
|-----0-----0---0-|-----0-----0---0-|------------||
|-3-----0h3-------|-2-----0h2-------|------------||
|-----------------|-----------------|-0----------||
|-----------------|-----------------|------------||
|
|-----------------|-----------------|------------||
|-----------------|-----------------|-5----------||
|-----2-5-----4-2-|-----2-6-----4-2-|------------||
|-----------------|-----------------|------------||
|-----------------|-----------------|------------||
|-----------------|-----------------|------------||


   Outro
    &
    Gtr I
||------------------|-0-----0---------|-----------------|-0-----0-----------||
||o-----------------|---3-----3-------|-----------------|---3-----3--------o||
||------0-------0---|-----0-----0---0-|-----0-------0---|-----0-----0---0---||
||----2---0-0h2-----|-----------------|---2---0-0h2-----|-------------------||
||o-0-------------0-|-3-----2---------|-0-------------0-|-3-----2----------o||
||------------------|-------------3---|-----------------|-------------3-----||
|
|   Gtr II
||------------------|-----------------|-----------------|-------------------||
||o-----3-----------|-----------------|-----3-----------|------------------o||
||--------------0---|---0-----0-------|-------------0---|---0-----0---------||
||----2---0-0h2-----|-----0-----0---0-|---2---0-0h2-----|-----0-----0---0---||
||o-0-------------0-|-3-----2-----2---|-0-------------0-|-3-----2-----2----o||
||----------------0-|-3-----0-----3---|---------------0-|-3-----0-----3-----||
|
|   Gtr III
||------------------|-----------------|-----------------|-------------------||
||o-----0-----------|-------------3---|-----0-----------|-------------3----o||
||----2---------0---|-0-0---0-0-------|---2---------0---|-0-0---0-0---------||
||o-0-----0-0h2---2-|-2---2-0---0-----|-0-----0-0h2---2-|-2---2-0---0------o||
||------------------|-----------------|-----------------|-------------------||


  Gtr I
|-----------|-----*|
|-----------|-----*|
|-----------|-----*|
|-^2--------|-----*|
|-^0--------|-----*|
|-^0--------|-----*|

I can see a lot of life in you.
I can see a lot of bright in you.
And I think the dress looks nice on you.
I can see a lot of life in you.

I can see a bed and make it too.
I can see a fireside turn blue.
And I can see the lot of life in you.
Yes, I can see a lot of life in you.

When the world looks back,
when the face looks after that,
I can see a lot of life in you.
Yes, I can see a lot of life in you.

I can see a lot of life in you.
I can see your bed and make it too.
And I think the dress looks nice on you.
Yes, I can see a lot of life in you.
I can see a lot of life in you.
Yes, I can see a lot of life in you


#----------------------------PLEASE NOTE-----------------------------#
# This represents the author's own work and interpretation of the    #
# song. To be used only for private study, scholarship, or research. #
#--------------------------------------------------------------------#

blog comments powered by Disqus