Flint (For The Unemployed And Underpaid) Tab

More Sufjan Stevens Tabs

Artist: Sufjan Stevens
 Album: Michigan
  Song: Flint (For The Unemployed And Underpaid)



Intro:
Gm  C  F  Bb x4

e|-----------------|-----------------|
B|-----------------|-----------------|
G|------2-3----5-2-|-----------------|
D|-5---------------|-----------------|
A|-----------------|-----3-5---------|
E|-----------------|-----------------|

e|-----------------|-----------------|
B|-----------------|-----------------|
G|------2-3----2---|-----------------|
D|-5-------------3-|-----------------|
A|-----------------|-----3-5---------|
E|-----------------|-----------------|

e|-----------------|-----------------|
B|-----------------|-----------------|
G|-----------------|-----------------|
D|-53----3-2---3-3-|-----------------|
A|---5-------------|-----3-5---------|
E|-----------------|-----------------|

e|-----------------|-----------------|
B|-3-3-------------|-----------------|
G|-------5-----3-2-|-----------------|
D|-----------------|-----------------|
A|-----------------|-----3-5---------|
E|-----------------|-----------------|


Gm         C       F     Bb
It's the same outside 
Gm        C     F      Bb
Driving to the riverside 
Gm       C     F   Bb
I pretend to cry 
Gm        C       F    Bb
Even if I cried alone 

Gm7  C7         F   Bb
I forgot the start 
Gm7     C7       F      Bb
Use my hands to use my heart 
Gm        C      F    Bb
Even if I died alone 
Gm        C      F    Bb
Even if I died alone 

Since the first of June 
Lost my job 
And lost my room 
I pretend to try 
Even if I tried alone 

I forgot the part 
Use my hands to use my heart 
Even if I died alone 
Even if I died alone 
Even if I died alone 
Even if I died alone 
Even if I died



#----------------------------PLEASE NOTE-----------------------------#
# This represents the author's own work and interpretation of the    #
# song. To be used only for private study, scholarship, or research. #
#--------------------------------------------------------------------#

blog comments powered by Disqus