#----------------------------PLEASE NOTE-----------------------------#
# This represents the author's own work and interpretation of the    #
# song. To be used only for private study, scholarship, or research. #
#--------------------------------------------------------------------#

Artist: Smog
  Song: Rock Bottom Riser

[http://www.indieguitartabs.com/bands/smog/rock_bottom_riser.html]

Tabbed by: Scott Squires

The only tab I can find for this song on the internet requires some messed up tuning, 
really who can be bothered.  This tab is in standard tuning, it's off in one area, 
where a note is supposed to ring through but can't.  This is a small price to pay for 
being able to pick up a guitar and play one of the greatest relationship songs ever 
written.


Standard tuning

Verse

-----------------------------------
-----------------------------------
---5--------5-------5-------------
-7---x4---6---x4--5----x4-----7--x4
--7--------7-------7-------8-7-----
-----------------------------------

Chorus

----------------------------------
----------------------------------
----------------------------------
--------7--x4----------7---x4-----
--10--7----------8--7-------------
----------------------------------

Enjoy!