#----------------------------PLEASE NOTE-----------------------------#
# This represents the author's own work and interpretation of the    #
# song. To be used only for private study, scholarship, or research. #
#--------------------------------------------------------------------#

Artist: Smog
  Song: Our Anniversary

[http://www.indieguitartabs.com/bands/smog/our_anniversary.html]

Tabbed by: Scott Squires

This is just Bill's part.
There is another simple string part that you can figure out yourself if you care to.

Note: > = hammer-on

Capo 4

intro         Part 1     
-------------------------------------------------------------
------2-0---------0-----0---------0------0------0-----0------
------2-0---------0-----0---------0------0------0-----0------
---------------------------x3---------------------------x3---
--0-----------------0>2--------------0>2-0>2------0>2--------
---------------3---------------3--------------0--------------

-------------------------------------------------
---0-------0-------------------------------------
---0-------0-------------------------------------
-------------------------------------------------
-----0>2<0---------------------------------------
-0-----------------------------------------------

Part 2
-3--2--0-----------3--2--0-------   ----------------
-0--0--0--3--0--3--0--0--0--3--0-   ----2-----2-----
----------0--0--0-----------0--0-   ----2-----2-----
---------------------------------   ------0>2----x16
---------------------------------   --0-------------
---------------------------------   ----------------


If you've heard the song then you know the rhythm.  Enjoy!

Scott Squires