#----------------------------PLEASE NOTE-----------------------------#
# This represents the author's own work and interpretation of the    #
# song. To be used only for private study, scholarship, or research. #
#--------------------------------------------------------------------#

Artist: Silver Mt. Zion
 Album: "This Is Our Punk Rock," Thee Rusted Satellites Gather + Sing
  Song: American Motor Over Smoldered Field

[http://www.indieguitartabs.com/bands/silver_mt_zion/american_motor_over_smoldered_field.html]

Tabbed by: Senor ChocoCuatro

Must be played with a capo on the first fret.


E|------------|------------|------------|------------|------------|
B|-9--9--9--9-|-9--9--9--9-|-9--9--9--9-|-7--7--7--7-|-7--7--7--7-|
G|--1--1--1--1|--1--1--1--1|--1--1--1--1|--1--1--1--1|--1--1--1--1|
D|------------|------------|------------|------------|------------|
A|8--8--8--8--|7--7--7--7--|6--6--6--6--|6--6--6--6--|5--5--5--5--|
E|------------|------------|------------|------------|------------|


E|------------|------------|------------|------------|------------|
B|-6--6--6--6-|-7--7--7--7-|-6--6--6--6-|-5--5--5--5-|-5--5--5--5-|
G|--1--1--1--1|--1--1--1--1|--1--1--1--1|--1--1--1--1|--1--1--1--1|
D|------------|------------|------------|------------|------------|
A|4--4--4--4--|5--5--5--5--|4--4--4--4--|4--4--4--4--|4--4--4--4--|
E|------------|------------|------------|------------|------------|

E|------------|------------|
B|-1--1--1--1-|-1--1--1--1-|
G|--3--3--3--3|--3--3--3--3|       x ∞
D|------------|------------|
A|------------|------------|
E|4--4--4--4--|4--4--4--4--|