#----------------------------PLEASE NOTE-----------------------------#
# This represents the author's own work and interpretation of the    #
# song. To be used only for private study, scholarship, or research. #
#--------------------------------------------------------------------#

Artist: Silver Jews
 Album: American Water
  Song: Send In The Clouds

[http://www.indieguitartabs.com/bands/silver_jews/send_in_the_clouds.html]

Tabbed by: Jonathan Danilovich

            Em                     G
Send in the clouds. Bring down the rain.
             D                    C
Shut all the blinds, turn out the lights:
         G             D         C
I feel insane when you get in my bed.

         Em                            G
I am the trick my mother played on the world.
          D                C
Seventeen doctors couldn't decide
        G            D             C
whether I should be allowed in the game.


e|---------------------------------------------------------------------------------|
B|-3--3-----3---1-----1---------3-----3---1-----1----------3-----3---1-----1-------|
G|-0----0---------0-----0---0-----0---------0-----0---0------2---------2-----2---2-|
D|-----------------------------------------------------------------------2-----2---|
A|--------3---3-----3-----3---3-----3---3-----3-----3----0-----0---0---------------|
E|---------------------------------------------------------------------------------|

e|----------------------------|
B|---3-----3---1-----1-----1--|
G|-----2---------2-----2------|
D|-----------------2-----2----|
A|-0-----0---0----------------|
E|----------------------------|


F                       C               D
Why can't monsters get along with other monsters?
      A             E             A
Soi disantra, soi disantra. Soi disantra...

         Em                    G
I know a puppy who walked from Kentucky.
           D                C
Made it to East Virginia by dawn,
       G          D           C
He had seventeen ideas in his head.

Em                                        G
Windex tears flow down the robot's face.

He'd never felt the mother's embrace.
         D                C
My momma named me after a king.
          G       D       C
I'm gonna bury my name in you.

e|---------------------------------------------------------------------------------|
B|-3--3-----3---1-----1---------3-----3---1-----1----------3-----3---1-----1-------|
G|-0----0---------0-----0---0-----0---------0-----0---0------2---------2-----2---2-|
D|-----------------------------------------------------------------------2-----2---|
A|--------3---3-----3-----3---3-----3---3-----3-----3----0-----0---0---------------|
E|---------------------------------------------------------------------------------|

e|------------------------------------------------------------------------------0--|
B|---3-----3---1----1---------3-0-1---0-1-3-0-1---0-1-3-0-1---0-1-3-0-1---0-1-3----|
G|-----2--------------2---2-2-------2-----------2-----------0-----------0----------|
D|----------------2----------------------------------------------------------------|
A|-0-----0---0----------0----------------------------------------------------------|
E|---------------------------------------------------------------------------------|

e|-----0-----0--------------------------------|
B|-3-1-0-1-3---1-0---0---0---0---0---0---0----|
G|-----------------2---2---2---2---2---2---0--|
D|--------------------------------------------|
A|--------------------------------------------|
E|--------------------------------------------|

F                       C              D
Why can't monsters get along with other monsters?
      A             E                  A
Soi disantra, soi disantra. They don't want-a...

C                 C C#  D               A
Why can't monsters get along with other monsters?
      F             D        A
Soi disantra, soi disantra - yeah
      F              D               A
Soi disan-tra, soi disantra - wow oh oh
      F              D               A
Soi disan-tra, soi disantra - wow oh oh
F              D        A
wow oh oh, wow oh oh oh oh
F              D        A
wow oh oh...