#----------------------------PLEASE NOTE-----------------------------#
# This represents the author's own work and interpretation of the    #
# song. To be used only for private study, scholarship, or research. #
#--------------------------------------------------------------------#

Artist: Shugo Tokumaru
 Album: Rum Hee
  Song: Parachute

[http://www.indieguitartabs.com/bands/shugo_tokumaru/parachute.html]

Tabbed by: Justin Chee

From tablature included with Shugo Tokumaru's "Rum Hee" EP.

Tuning: EADF#BE

Riff 1
E  |--------------------|-------------------|
B  |--------------------|-------------------|
F# |--------------------|-------------------|
D  |-----------14-------|-------9-----------|
A  |---0---12-------0---|---7-------0---9---|
E  |--------------------|-------------------|

E  |--------------------|-------------------|
B  |--------------------|-------------------|
F# |--------------------|-------------------|
D  |---12-----------7---|-------------------|
A  |-------0---5--------|-----------7---7---|
E  |--------------------|---0---4-----------|

Riff 2
E  |-------------------------|-------------------------------|
B  |-------------------------|-------------------------------|
F# |-------------------------|-------------------------------|
D  |-------14-------11-------|---9-----------9---6-----------|
A  |---0---------0-------0---|-------8---9-----------7---7---|
E  |-------------------------|-------------------------------|

Arpeggio
E  |---------------------------------------------|
B  |---0---0---0---0----0----0----0----0----0----|
F# |---0---0---0---0----0----0----0----0----0----|
D  |---0---0---0---0----0----0----0----0----0----|
A  |---5---7---9---11---12---14---16---17---19---|
E  |---------------------------------------------|

Arpeggio
Gaug7, F#m7, Gaug7, F#m7, E7sus4, E7

E  |---------------------------|                    
B  |---------------------------|
F# |---5---3---5---3---3---2---|
D  |---4---2---4---2---0---0---|
A  |---2---4---2---4---2---2---|
E  |---3---2---3---2---0---0---|

Arpeggio
D, E, A, F#m | D, E, F#m, E, D | D, E, A, F#m | D, E, A

E  |-------------------|------------------------|
B  |---7---9---2---2---|---7---9---10---9---7---|
F# |---0---0---0---0---|---0---0---0----0---0---|
D  |---7---9---2---2---|---7---9---11---9---7---|
A  |---5---7---0-------|---5---7---9----7---5---|
E  |---------------0---|------------------------|

E  |-------------------|---------------|
B  |---7---9---2---2---|---7---9---2---|
F# |---0---0---0---0---|---0---0---0---|
D  |---7---9---2---2---|---7---9---2---|
A  |---5---7---0-------|---5---7---0---|
E  |---------------0---|---------------|

Arpeggio
C, Bb, A, G, F, E7sus4, E7

E  |--------------------------------|                    
B  |--------------------------------|
F# |---10---8---7---5---3---3---2---|
D  |---0----0---0---0---0---0---0---|
A  |---7----5---4---2---0---2---2---|
E  |---8----6---5---3---1---0---0---|

Final Riff
E  |--------------------|-----------------------|
B  |--------------------|-----------------------|
F# |-----------7---10---|-------------10---12---|
D  |--------------------|-------10------------- |
A  |-------7------------|-----------------------|
E  |---5----------------|---9-------------------|

E  |-------------------------|-----------------------|
B  |-------------------------|-----------------------|
F# |-------------------------|-----------------------|
D  |---------------12--------|---11----------------- |
A  |---------12------------- |-------------12--------|
E  |---10---------------10---|-------10---------10---|