#----------------------------PLEASE NOTE-----------------------------#
# This represents the author's own work and interpretation of the    #
# song. To be used only for private study, scholarship, or research. #
#--------------------------------------------------------------------#

Artist: The Shins
 Album: Chutes Too Narrow
  Song: Those To Come

[http://www.indieguitartabs.com/bands/shins/those_to_come.html]

Tabbed by: justin@indieguitartabs.com

   D
e|------------------
B|-------------0----
G|-------7--------7-
D|----7-----7-------
A|-5----------------
E|------------------
 
   A
e|---------------------
B|---------------------
G|-------------0-------
D|-------7--------7----
A|----7-----7----------
E|-5-------------------

   Em
e|---------------------
B|-----------8---------
G|------9------9-------
D|----9---9------------
A|--7------------------
E|---------------------

Intro:  D

D
Eyeless in the morning sun you were
pale and mild, a modern girl
taken with thought, still prone to care
makin' tea in your underwear
         A
you went out in the yard to find 
something to eat and clear your mind 
                              D
something bad inside me went away
 
D
quaking leaves and broken light 
shifting skin the coming night 
the bearers of all good things arrive 
climb inside us, twist and cry 
  A
a kiss on your molten eyes 
myriad lives like blades of grass 
                                D
yet to be realized, bow as they pass

D
they are cold, still, waiting in the ether, 
   Em
to form, feel, kill, propagate, 
        D
only to die

(Solo)
D  A (x2)
 
D
dissolve, magically, absurdly, 
        Em
they'll end, leave, dissipate,
                     D
coldly and strangely return